Mxpx - My Life Story Chords & Tabs

 

My Life Story Chords & Tabs

Mxpx Chords & Tabs

Version: 1 Type: Tab 0 ratings
1 star 2 stars 3 stars 4 stars 5 stars
comments

My Life Story Tab

   
Song: My life story
Band: MXPX
transcribed by: Lee(crazy_freik)

Tuned:E A D G B E(standerd)

p.m.- palm mute
x- mute scratching
/- slide

Intro

guitar1
E------------------------
B------------------------
G------------------------
D-------------------77---
A-4---4---4---4-----55---
E--55--55-55---555-------

Then guitar2 comes in and plays this over
the intro
-------------------------
-------------------------
-------------------------
-777777777777--77--------
-777777777777--55--------
-555555555555------------
[ Tab from: http://www.guitartabs.cc/tabs/m/mxpx/my_life_story_tab.html ]
Verse
                 Fill
D-7-----77--7--   xx---xx---xx---xx---77777777----7--
A-7-----55--7--   xx-7-xx-6-xx-4-xx-2-55555555-22-7--
E-5---------5--   xx-5-xx-4-xx-2-xx-0----------00-5--

Chorus

D-7777777777777777777-x-7-x-------------
A-7777777777777777777-x-5-x-2-----------
E-5555555555555555555-x---x-0-----------

Verse-Chorus

Bridge

D-7-x-7-x---x--7///9\\\7--------------
A-7-x-5-x-2-x--7///9\\\7--------------
E-5-x---x-0-x--5///7\\\5--------------

D------------------------------------
A---------44444444-------------------
E-55555555--------22222222-00000000--
p.m.

D-7---------6-----------4--------2-
A-7---------4-----------4--------2-
E-5---------------------2--------0-

Back to chorus
End with the intro 

Im not sure about a couple of the notes here because I did this
from memory.

If you have a comment mail me at
craz_freik@yahoo.com

Comments