Mxpx - Middlename Chords & Tabs

 

Middlename Chords & Tabs

Mxpx Chords & Tabs

Version: 2 Type: Tab 0 ratings
1 star 2 stars 3 stars 4 stars 5 stars
comments

Middlename Tab

this is one of MXPX's greatest songs in my opinion and its pretty easy too
5/29/05- ok guys added a few notes to the solo the rest is fine though

Breakdown:
Standard Tuning
. plam mute

Intro 2x
e|-------------------------------------------------------------------------|
B|-------------------------------------------------------------------------|
G|-------------------------------------------------------------------------|
D|-----------------------------------6-------------------------------------|
A|-7-----------------7---------------444444444444444-5---------------------|
E|-555555555555555---555555555555555-----------------333333333333333-------|
    ................  ..............  ..............  ..............         
e|-------------------------------|
B|-------------------------------|
G|-------------------------------|
D|----------44444444-77777777----|
A|-44444444-22222222-55555555----|
E|-22222222----------------------|
[ Tab from: http://www.guitartabs.cc/tabs/m/mxpx/middlename_tab_ver_2.html ]
Chorus 1x                                        4x
e|-------------------------------------------|-----------------------------|
B|-------------------------------------------|-----------------------------|
G|-------------------------------------------|-----------------------------|
D|----------66666666---------------------6-7-|----6-6----------------------|
A|-77777777-44444444-55555555-44444444-7-4-5-|-7-74-45-555555--------------|
E|-55555555----------33333333-22222222-5-----|-5-5---3-333333--------------|

Verse 2x
e|--------------------------------------------|
B|--------------------------------------------|
G|--------------------------------------------|
D|----------99999999----------7777-9999-------|
A|-77777777-77777777-55555555-5555-7777-------|
E|-55555555----------33333333-----------------|

then go to intro

then chorus

then verse

Then Solo 2x                   After you play the solo twice play this
e|-------------------------------|--------------|
B|---5------5------5-------------|--------------|
G|------6------6------6----------|--------------|
D|-77-----66-----55-----77777777-|-4---77777777-|
A|----------------------55555555-|-2---55555555-|
E|-------------------------------|--------------|

Then go into Chorus

Then Outro
e|-------------------------------------------|
B|-------------------------------------------|
G|-------------------------------------------|
D|-4---77777777------------------------------|
A|-2---55555555-7--7-------------------------|
E|--------------5--5-------------------------|

Well thats it pretty cool song, rate me please and send commens or criticism any time see ya
Comments