Mxpx - Lifetime Enlightenment Chords & Tabs

 

Lifetime Enlightenment Chords & Tabs

Mxpx Chords & Tabs

Version: 2 Type: Tab 0 ratings
1 star 2 stars 3 stars 4 stars 5 stars
comments

Lifetime Enlightenment Tab

   
Lifetime enlightenment
MXPX

Tabbed By Mericlepunk

Intro
e-----------------------------------------------------------------|
B-----------------------------------------------------------------|
G---------1111-10-13----------1111-10-13-------------1111xx-10-13-|
D-88-1111-1111-10-13-88-11111-1111-10-13-88xx-1111xx-1111xx-10-13-|
A-88-1111-9-9--8--11-88-11111-9-9--8--11-88xx-1111xx-9-9-xx-8--11-|
E-66-9-9-------------66-9-9--------------66xx-9-9-xx--------------|
[ Tab from: http://www.guitartabs.cc/tabs/m/mxpx/lifetime_enlightenment_tab_ver_2.html ]
e----------------------------|
B----------------------------|
G----------------------------|
D-88xx-1111xx-5xxxx-4-2xx-6--|
A-88xx-1111xx-5xxxx-4-2xx-6--|
E-66xx-9-9-xx-3xxxx-2-0xx-4--|

Verse
e-------------------------|
B-------------------------|
G-------------------------| x4
D-8888-13131313-5555-4444-|
A-8888-13131313-5555-4444-|
E-6666-11111111-3333-2222-|

E---------------------------------------------|
B---------------------------------------------|
G---------------------------------------------|
D-2--5--7--2--5-8--7--2--5-7-5-22xxxxxxx-|
A-2--5--7-2--5-8--7--2--5--7--5-22xxxxxxx-|
E-0--3-5-0--3--6--5--0--3--5--3-00xxxxxxx-|
Comments