Mxpx - Invitation To Understanding Chords & Tabs

 

Invitation To Understanding Chords & Tabs

Mxpx Chords & Tabs

Version: 1 Type: Tab 0 ratings
1 star 2 stars 3 stars 4 stars 5 stars
comments

Invitation To Understanding Tab

   
//---------------------------------------
  THIS IS FOR MY COUSIN KORJIK!
----------------------------------------//

MXPX - INVITATION TO UNDERSTANDING

INTRO
                                                           Bm
-------0------------0------------0------------0--------------------------------------------------------
---3-----3------3-----3------3-----3------3-----3----------3-2------------3-2--------------------------
-----2-----2------2-----2------0-----0------0-----0------4-----4--------4-----4----------------------0-
-0-----------------------------------------------------4---------4----4---------4----2---0---4---2-----
-----------------------------------------------------2--------------0----------------------------------
--------------2------------3------------3------------------------------------------3---3---3---3---3---


[ Tab from: http://www.guitartabs.cc/tabs/m/mxpx/invitation_to_understanding_tab.html ]
VERSE
                                                 Bm
-------0------------0------------0------3----------------------------------------------------
---3-----3------3-----3------3-----3----0--------3-2------------3-2--------------------------
-----2-----2------2-----2------0-----0--0------4-----4--------4-----4----------------------0-
-0--------------------------------------0----4---------4----4---------4----2---0---4---2-----
----------------------------------------2--2--------------0----------------------------------
--------------2------------3------------3--------------------------------3---3---3---3---3---

G-Strum:
--------------------
--------------------
------------------0-
--2---0---4---2-----
--------------------
3---3---3---3---3---


CHORUS
Bm                   A 
If you come knockin' at my door
    G         D
And I am not around
Bm               A                G-Strum
Foolishness came by and we're downtown




E                      G
What can I do? There's no one here but me 
    D          A
And nothin' on tv
E                     G
Where could you be? I really wouldn't know
D                    A
Where else you might go


ETC.

There are some minor quirks that can be figured out when listening to the song, but
everything is here (: happy playing!


--jajajija
Comments