Mxpx - Heard That Sound Chords & Tabs

 

Heard That Sound Chords & Tabs

Mxpx Chords & Tabs

Version: 1 Type: Tab 0 ratings
1 star 2 stars 3 stars 4 stars 5 stars
comments

Heard That Sound Tab

-------------------------------------------------------------------------------
			         MxPx
                           Heard That Sound
-------------------------------------------------------------------------------
Tabbed by: Kurt Guenther 
Email: nobrakes90@netscape.net

This is an awesome song off MxPx's album, Panic. 

Standard Tuning 


Intro: (You Can Figure The Strumming Out--It's Pretty Easy)
     Guitar I
e|---------------------------------------------------------------------------|
B|---------------------------------------------------------------------------|
G|-----------6--------8--------4------------------6--------8--------4--------|
D|--4--------6-x14----8-x14----4-x14-----4--------6-x14----8-x14----4-x14----|
A|--4-x28----4--------6--------2---------4-x14----4--------6--------2--------|
E|--2------------------------------------2-----------------------------------|
      Guitar II
e|---------------------------------------------------------------------------|
B|---------------------------------------------------------------------------|
G|------------------------------------------------6-------8--------4---------|
D|---------------------------------------4--------6-------8--------4---------|
A|---------------------------------------4--------4-------6--------2---------|
E|---------------------------------------2-----------------------------------|
                                                                   PICK SLIDE
Solo Riff:
     Guitar I
e|---------------------------------------------------------------------------|
B|---------------------------------------------------------------------------|
G|------------11---------------11------------------11---------------11-------|
D|------11/13----15/11----11/13----15-13/11---11/13----15/11---11/13----13/11|
A|---------------------------------------------------------------------------|
E|---------------------------------------------------------------------------|
     Guitar II
e|---------------------------------------------------------------------------|
B|---------------------------------------------------------------------------|
G|------------------------6--------------------8---------------4-------------|
D|-----4------------------6-x16----------------8-x16-----------4-x16---------|
A|-----4-x16--------------4--------------------6---------------2-------------|
E|-----2---------------------------------------------------------------------|

Verse:   (x2)           
    Guitars I & II      (Play This Twice)
e|---------------------------------------------------------------------------|
B|---------------------------------------------------------------------------|
G|-----------------------6-----------------8-----------------4---------------|
D|-----4-----------------6-x16-------------8-x16-------------4-x16-----------|
A|-----4-x16-------------4-----------------6-----------------2---------------|
E|-----2---------------------------------------------------------------------|
  PM   ****************  ****************  ****************  ****************

Chorus:  (x2)
     Guitars I & II      (Play This Twice)
e|---------------------------------------------------------------------------|
B|---------------------------------------------------------------------------|
G|-----------------------6-------------------8-----------------4-------------|
D|-----4-----------------6-x16---------------8-x16-------------4-x8----------|
A|-----4-x16-------------4-------------------6-----------------2-------------|
E|-----2---------------------------------------------------------------------|
[ Tab from: http://www.guitartabs.cc/tabs/m/mxpx/heard_that_sound_tab.html ]
Solo Riff:
     Guitar I
e|---------------------------------------------------------------------------|
B|---------------------------------------------------------------------------|
G|------------11---------------11------------------11---------------11-------|
D|------11/13----15/11----11/13----15-13/11---11/13----15/11---11/13----13/11|
A|---------------------------------------------------------------------------|
E|---------------------------------------------------------------------------|
     Guitar II
e|---------------------------------------------------------------------------|
B|---------------------------------------------------------------------------|
G|------------------------6--------------------8---------------4-------------|
D|-----4------------------6-x16----------------8-x16-----------4-x16---------|
A|-----4-x16--------------4--------------------6---------------2-------------|
E|-----2---------------------------------------------------------------------|

Verse:           
    Guitars I & II  (Only Play Second Time--First Part of Verse is Only Bass)
e|---------------------------------------------------------------------------|
B|---------------------------------------------------------------------------|
G|-----------------------6-----------------8-----------------4---------------|
D|-----4-----------------6-x16-------------8-x16-------------4-x16-----------|
A|-----4-x16-------------4-----------------6-----------------2---------------|
E|-----2---------------------------------------------------------------------|
  PM   ** ** ** **       ** ** ** **       ** ** ** **       

Chorus:  (x2)
     Guitars I & II      (Play This Twice)
e|---------------------------------------------------------------------------|
B|---------------------------------------------------------------------------|
G|-----------------------6-------------------8-----------------4-------------|
D|-----4-----------------6-x16---------------8-x16-------------4-x8----------|
A|-----4-x16-------------4-------------------6-----------------2-------------|
E|-----2---------------------------------------------------------------------|

Bridge Solo:    
     Guitar I (Tremelo Picking)
e|---------------------------------------------------------------------------|
B|------------------------14----------------16--------14--------12-------------------|
G|------------------------13-(x16)----------15-(x8)---13-(x8)---11-(x16)------|
D|-----11(x16)---------------------------------------------------------------|
A|---------------------------------------------------------------------------|
E|---------------------------------------------------------------------------|
     Guitar II
e|---------------------------------------------------------------------------|
B|---------------------------------------------------------------------------|
G|------------------------6------------------8---------6---------4-----------|
D|-----4------------------6-x16--------------8-x8------6-x8------4-x16-------|
A|-----4-x16--------------4------------------6---------4---------2-----------|
E|-----2---------------------------------------------------------------------|

Bridge:   (x2)
     Guitars I & II      (Play This Twice)            End On This On 2nd Time
e|----------------------------------------------------|-----------------------|
B|----------------------------------------------------|-----------------------|
G|------8------------------6------------------4-------|-4-------(4)-----------|
D|------8-x16--------------6-x16--------------4-x32---|-4-x18---(4)[Let-Ring]-|
A|------6------------------4------------------2-------|-2-------(2)-----------|
E|----------------------------------------------------|-----------------------|
                                                                   PICK SLIDE

Outro Chorus:    (x4)
     Guitars I & II      (Play This Four Times)
e|---------------------------------------------------------------------------|
B|---------------------------------------------------------------------------|
G|-----------------------6-------------------8-----------------4-------------|
D|-----4-----------------6-x16---------------8-x16-------------4-x8----------|
A|-----4-x16-------------4-------------------6-----------------2-------------|
E|-----2---------------------------------------------------------------------|

Ending Riff:
     Guitar I
e|---------------------------------------------------------------------------|
B|---------------------------------------------------------------------------|
G|------------11---------------11------------------11---------------11-------|
D|------11/13----15/11----11/13----15-13/11---11/13----15/11---11/13----13/11|
A|---------------------------------------------------------------------------|
E|---------------------------------------------------------------------------|
     Guitar II                                                         END ON
e|-------------------------------------------------------------------|--------------------|
B|-------------------------------------------------------------------|--------------------|
G|------------------------6--------------------8---------------4-----|--------------------|
D|-----4------------------6-x16----------------8-x16-----------4-x16-|--------(4)---------|
A|-----4-x16--------------4--------------------6---------------2-----|--------(4)-[Ring]--|
E|-----2-------------------------------------------------------------|--------(2)---------|
Comments