Mxpx - Gsf Chords & Tabs

 

Gsf Chords & Tabs

Mxpx Chords & Tabs

Version: 8 Type: Tab 0 ratings
1 star 2 stars 3 stars 4 stars 5 stars
comments

Gsf Tab

Tabbed by:Ryan

Tuning:Standard

Intro:(x2)
e|---------------------------------------------------------------------------|
B|---------------------------------------------------------------------------|
G|---------------------------------------------------------------------------|
D|-----------5-5----5-5---530------------------------------------------------|
A|----5-5-777-7--333-3-555---------------------------------------------------|
E|-333-3---------------------------------------------------------------------|

Verse:(x2)
"you didn't have to be so mean to me......"
e|---------------------------------------------------------------------------|
B|---------------------------------------------------------------------------|
G|---------------------------------------------------------------------------|
D|--------9(x12)-5(x12)-7(x12)-----------------------------------------------|
A|-5(x12)-7------3------5----------------------------------------------------|
E|-3-------------------------------------------------------------------------|

Pre Chorus:(x2)
e|---------------------------------------------------------------------------|
B|---------------------------------------------------------------------------|
G|---------------------------------------------------------------------------|
D|-------4(x5)-5(x5)-7(x6)---------------------------------------------------|
A|-5(x5)-2-----3-----5-------------------------------------------------------|
E|-3-------------------------------------------------------------------------|

Chorus:
"girls aint no good anymore anyway...."
e|---------------------------------------------------------------------------|
B|---------------------------------------------------------------------------|
G|---------------------------------------------------------------------------|
D|-9(x12)-5(x12)-4(x12)-7(x12)-9(x12)-5(x12)--------7(x12)-------------------|
A|-7------3------2------5------7------3------5(x12)-5------------------------|
E|-------------------------------------------3-------------------------------|
[ Tab from: http://www.guitartabs.cc/tabs/m/mxpx/gsf_tab_ver_8.html ]
Intro:(x2)
e|---------------------------------------------------------------------------|
B|---------------------------------------------------------------------------|
G|---------------------------------------------------------------------------|
D|-----------5-5----5-5---530------------------------------------------------|
A|----5-5-777-7--333-3-555---------------------------------------------------|
E|-333-3---------------------------------------------------------------------|

Verse:(x2)
"it always happens to my friends it always happens to me......"
e|---------------------------------------------------------------------------|
B|---------------------------------------------------------------------------|
G|---------------------------------------------------------------------------|
D|--------9(x12)-5(x12)-7(x12)-----------------------------------------------|
A|-5(x12)-7------3------5----------------------------------------------------|
E|-3-------------------------------------------------------------------------|

Pre Chorus:(x2)
e|---------------------------------------------------------------------------|
B|---------------------------------------------------------------------------|
G|---------------------------------------------------------------------------|
D|-------4(x5)-5(x5)-7(x6)---------------------------------------------------|
A|-5(x5)-2-----3-----5-------------------------------------------------------|
E|-3-------------------------------------------------------------------------|
Chorus:
"girls aint no good anymore anyway...."
e|---------------------------------------------------------------------------|
B|---------------------------------------------------------------------------|
G|---------------------------------------------------------------------------|
D|-9(x12)-5(x12)-4(x12)-7(x12)-9(x12)-5(x12)--------7(x12)-------------------|
A|-7------3------2------5------7------3------5(x12)-5------------------------|
E|-------------------------------------------3-------------------------------|

Intro:(x2)
e|---------------------------------------------------------------------------|
B|---------------------------------------------------------------------------|
G|---------------------------------------------------------------------------|
D|-----------5-5----5-5---530------------------------------------------------|
A|----5-5-777-7--333-3-555---------------------------------------------------|
E|-333-3---------------------------------------------------------------------|

thats all! its really easy! just listen to the song to get the rythem right.
i think i spelled rythem wrong. oh well.
Comments