Mxpx - Gsf Chords & Tabs

 

Gsf Chords & Tabs

Mxpx Chords & Tabs

Version: 7 Type: Tab 0 ratings
1 star 2 stars 3 stars 4 stars 5 stars
comments

Gsf Tab

   
-------------------------------------------------------------------------------
			     GSF-MXPX
-------------------------------------------------------------------------------
Tabbed by:Greg
Email:unEven3band@hotmail.com

Tuning:standard
Intro
   G     E     C    D
e|---------------------------------------------------------------------------|
B|---------------------------------------------------------------------------|
G|------9999--5555--77--5--4-------------------------------------------------|
D|5555--9999--5555--77-------------------------------------------------------|
A|5555--7777--3333--55-------------------------------------------------------|
E|3333-------------------------------------2x--------------------------------|
[ Tab from: http://www.guitartabs.cc/tabs/m/mxpx/gsf_tab_ver_7.html ]
Verse
|-------------------------------|
|-------------------------------|
|---------9-------5-------7-----|
|-5-------9-------5-------7-----|
|-5-------7-------3-------5-----|
|-3-----------------------------|

Chorus
|------------------------------------------------------|
|------------------------------------------------------|
|-999999999999-555555555555-444444444444-777777777777--|
|-999999999999-555555555555-444444444444-777777777777--|
|-777777777777-333333333333-222222222222-555555555555--|
|------------------------------------------------------|

Bridge
e|---------------------------------------------------------------------------|
B|---------------------------------------------------------------------------|
G|--------------4-4-4-4-4-4-5-5-5-5-5-5-7-7-7-7-7-7--------------------------|
D|--5-5-5-5-5-5-2-2-2-2-2-2-3-3-3-3-3-3-5-5-5-5-5-5--------------------------|
A|--3-3-3-3-3-3-2-2-2-2-2-2-3-3-3-3-3-3-5-5-5-5-5-5--------------------------|
E|--3-3-3-3-3-3--------------------------------------------------------------|
Comments