Mxpx - Gsf Chords & Tabs

 

Gsf Chords & Tabs

Mxpx Chords & Tabs

Version: 3 Type: Tab 0 ratings
1 star 2 stars 3 stars 4 stars 5 stars
comments

Gsf Tab

Standard Tuning
Intro:
|----------------------------------------------|2x
|----------------------------------------------|
|----------------------------------------------|
|----------------5---5------5----5-------7-5-0-|
|-----5---5—777----7----333----3----555--------|
|—333---3--------------------------------------|
[ Tab from: http://www.guitartabs.cc/tabs/m/mxpx/gsf_tab_ver_3.html ]
Verse: ”you didn’t have to be”  
|-------------------------------|
|-------------------------------|
|---------9-------5-------7-----|
|-5-------9-------5-------7-----|
|-5-------7-------3-------5-----|
|-3-----------------------------|
     -------palm mute------
|----------------------------------------------|
|----------------------------------------------|
|----------------9-99--------5-55-------7-77---|
|----5-55--------9-99--------5-55-------7-77---|
|----5-55--------7-77--------3-33-------5-55---|
|----3-33--------------------------------------|

chorus: “girls ain’t no good”
|------------------------------------------------------|
|------------------------------------------------------|
|-999999999999-555555555555-444444444444-777777777777--|
|-999999999999-555555555555-444444444444-777777777777--|
|-777777777777-333333333333-222222222222-555555555555--|
|------------------------------------------------------|

Verse
Chorus
Intro x2
End
Comments