Mxpx - Gsf Chords & Tabs

 

Gsf Chords & Tabs

Mxpx Chords & Tabs

Version: 4 Type: Bass Tab 0 ratings
1 star 2 stars 3 stars 4 stars 5 stars
comments

Gsf Bass Tab

The bass does not follow the guitar in some of this song.  If you listen to the
song you should be able to play it fairly easily.  Hope you enjoy it. If you have
any questions, e-mail me at vipertcat451@aol.com
Later,
Nate


Intro:2x
G:------------------------------------------
D:------------------------------------5-4---
A:-----------777-5-77---333-2-33--555-----5-
E:-333-2-33---------------------------------

Verse(part 1):2x
G:--------------------------------------------------------------------------
D:-------------------222----------------------------------------------------
A:----222--333--555-------555--333--222--333--222--000-2-3-555--333-222--000
E:333-----------------------------------------------------------------------

Chorus:2x
G:---------------------------------------------
D:---------------------------------------------
A:-----------222222222--333333333--555555555---
E:-333333333-----------------------------------

Verse(part 2):2x
G:---------------------------------------------------------------------------000000000--
D:-222222222----------------------000000000--222222222----------------------------------
A:-----------333333333--22222222-----------------------333333333------------------------
E:----------------------------------------------------------------3333333333------------
[ Tab from: http://www.guitartabs.cc/tabs/m/mxpx/gsf_btab_ver_4.html ]
Intro:2x
G:------------------------------------------
D:------------------------------------5-4---
A:-----------777-5-77---333-2-33--555-----5-
E:-333-2-33---------------------------------

Verse(part 1):2x
G:--------------------------------------------------------------------------
D:-------------------222----------------------------------------------------
A:----222--333--555-------555--333--222--333--222--000-2-3-555--333-222--000
E:333-----------------------------------------------------------------------

Chorus:2x
G:---------------------------------------------
D:---------------------------------------------
A:-----------222222222--333333333--555555555---
E:-333333333-----------------------------------

Verse(part 2):2x
G:---------------------------------------------------------------------------000000000--
D:-222222222----------------------000000000--222222222----------------------------------
A:-----------333333333--22222222-----------------------333333333------------------------
E:----------------------------------------------------------------3333333333------------

Intro:2x
G:------------------------------------------
D:------------------------------------5-4---
A:-----------777-5-77---333-2-33--555-----5-
E:-333-2-33---------------------------------

End
G:--------------
D:--------------
A:--------------
E:-3(let ring)--
Comments