Mxpx - Grey Skies Turn Blue Chords & Tabs

 

Grey Skies Turn Blue Chords & Tabs

Mxpx Chords & Tabs

Version: 1 Type: Tab 0 ratings
1 star 2 stars 3 stars 4 stars 5 stars
comments

Grey Skies Turn Blue Tab

   
---------------------------------------------------------------------------
                      Grey skies turn blue: mxpx
---------------------------------------------------------------------------
 this song is wicked awesome and so is the band

This is my first published tab... so i hope its not super bad :p

tuning: standard EADGBe

intro guitar 1
e---------------------------|
b---------------------------|
g---4-----------4-----------|
d---4-x8--6-----4-x8--6-----|
a---2-----6-x8--2-----6-x5--|
E---------4-----------4-----|

    intro guitar 2
riff 1
e-----------------|   its really the piano part but i tabbed it out anyway...
b--4-5-7-5--------|   x7...end on (4)and
g-----------------|        let ring....
d-----------------|
a-----------------|
E-----------------|

verse guitar 1
e--------------------------------------|
b--------------------------------------|
g-4------------------------------------|
d-4-x14-6-----4-----2------------------|
a-2-----6-x14-4-x14-2-x14--------------|
E-------4-----2-----0------------------|


e-------------------------------------------------------------------|
b-------------------------------------------------------------------|
g-444-444-444-444---------------------------------------------------|
d-444-444-444-444-666-666-666-666-444-444-444-444-222-222-xx-2-xx-2-|
a-222-222-222-222-666-666-666-666-444-444-444-444-222-222-xx-0-xx-2-|
E-----------------444-444-444-444-222-222-222-222-000-000-xx-0-xx-0-|
  **  **  **  **  **  **  **  **  **  **  **  **  **  **
[ Tab from: http://www.guitartabs.cc/tabs/m/mxpx/grey_skies_turn_blue_tab.html ]
chorus
guitar 1
e---------------------------------------------------------|
b---------------------------------------------------------|
g-444444--------------------------------------------------| x2
d-444444-666666-444444-222222-666666-444444-222222222222--|
a-222222-666666-444444-222222-666666-444444-222222222222--|
E--------444444-222222-000000-444444-222222-000000000000--|

guitar 2

e---------------------------------------------|
b-75404h5-7540~-4422-975975-------------------|
g---------------------------------------------|  the notes that are above the
     (  )   ( )     (      )                  ( )are the fill notes..all the
                                               other notes are while singin


fill
guitar 1
e--------------|
b--------------|
g-4------------|
d-4-x8-6-------|
a-2----6-x5----|
E------4-------|

guitar 2 plays riff one 3x and end on (4)

verse 2
guitar 1 plays same as verse 1
guitar 2 plays;
e--------------------------|
b---5h75-5h75-5h7p5h7p5h75-| play like 7 or 8 times
g--------------------------|

chorus


Bridge

guitar 1
e------------------------|
a------------------------|
g-6~--4~------4~-4-------|
d-6~--4~--4-2-4~-4-4-2~--|
a-4~--2~--4-2-2~-2-4-2~--|
E---------2-0------2-0~--|

guitar 2
e------------------------------|
a-7~~5740-540-540-540--54------|
g------------2---0---2---------| that might not sound quite right but i think
d------------------------------| its the bass that blends it
a------------------------------|
E------------------------------|


intro
chorus
Comments