Mxpx - Forgive And Forget Chords & Tabs

 

Forgive And Forget Chords & Tabs

Mxpx Chords & Tabs

Version: 1 Type: Bass Tab 0 ratings
1 star 2 stars 3 stars 4 stars 5 stars
comments

Forgive And Forget Bass Tab

MxPx
Song:      Forgive And Forget
Album:     At the Show
Tabbed by: BassD!!

				>=play a couple of time
				Timing people!Timing!
Intro x2
G|-------------------------------------|
D|-------------------------------------|
A|-4>-----4>------------4>-7>----------|
E|----2-2----2-2--2>-5>----------------|

x1
G|-------------------------------------|
D|-------------------------------------|
A|-4-----4---------4--7----------------|
E|-----2-----2--5----------------------|
[ Tab from: http://www.guitartabs.cc/tabs/m/mxpx/forgive_and_forget_btab.html ]
G|-------------------------------------|
D|-------------------------------------|
A|-4>-----4>------------4>-7>----------|
E|----2-2----2-2--2>-5>----------------|

End with
G|-------------------------------------|
D|-------------------------------------|
A|-----4-7-4-----------4-7-4-----------|
E|-2-5-------5-2>--2-5-------5-2-------|
     		 or			 (Choose the one that
G|-------------------------------------| sounds best)
D|-------------------------------------|
A|-----4-7-2-----------4-7-2-----------|
E|-2-5-------5-2>--2-5-------5-2-------|



This song is only 29 sec. and is on the live album "At The Show".
Watch the TIMING carefuly.

Any questions? Email= rancid_ska@hotmail.com

===============================================================================

Comments