Mxpx - Foolish Chords & Tabs

 

Foolish Chords & Tabs

Mxpx Chords & Tabs

Version: 2 Type: Tab 0 ratings
1 star 2 stars 3 stars 4 stars 5 stars
comments

Foolish Tab

   
Song: foolish
Band: mxpx
transcribed by: Lee(crazy_freik)

p.m.- palm mute
X- mute scrathing
/- slide

tuned- e a d g b e

intro(This is played thoughout the song at 
different times.)

E--------------------------
B--------------------------
G--------------------------
D-77777-7777-7///9---------
A-77777-7777-5///7---------
E-55555-5555---------------

Verse

D-xx-7-xx-7-xx-7-xx-7---xx-4-xx-4-xx-4-xx-4-- -77777-99999-
A-xx-7-xx-7-xx-7-xx-7---xx-4-xx-4-xx-4-xx-4-- -55555-77777-
E-xx-5-xx-5-xx-5-xx-5---xx-2-xx-2-xx-2-xx-2-- -------------
p.m.                                          Not palm muted 

prechorus
[ Tab from: http://www.guitartabs.cc/tabs/m/mxpx/foolish_tab_ver_2.html ]
E------------------------------
B------------------------------
G-7------9---------------------
D-7------9------4-------7------
A-5------7------4-------7------
E---------------2-------5------


Chorus

D-777777777777777777--9999999999999999--44444444444444444-7777777777--
A-555555555555555555--7777777777777777--44444444444444444-7777777777--
E---------------------------------------22222222222222222-5555555555--

Intro-Verse-Prechorus-chorus


Bridge
             What will it be?                          
D-44444-xx--22222-xx--77777--7---7--  xxxxxxx----
A-44444-xx--22222-xx--55555--7---5--  xxxxxxx----
E-22222-xx--00000-xx---------5------  xxxxxxx----

Chorus



Thats it, I did this thing from memory and I have a feeling I left something oy
Ill try to listen to it and up date it if I left something out.

crazy_freik@yahoo.com

And micheal downy is a fag
Comments