Mxpx - Everything Sucks When Youre Gone Chords & Tabs

 

Everything Sucks When Youre Gone Chords & Tabs

Mxpx Chords & Tabs

Version: 1 Type: Tab 0 ratings
1 star 2 stars 3 stars 4 stars 5 stars
comments

Everything Sucks When Youre Gone Tab

   
-----------------------------------------------------------------------------
             Everything Sucks (When You're Gone)  - MxPx
-----------------------------------------------------------------------------

Artist: Mxpx
Song: Everything Sucks (When You're Gone) [Track 6]
Albulm: Before, Everything and After
Tabbed by: Zero Is great man
Email: Benzero@verison.net
Tuning: EADGBe


Everything Sucks(When You're Gone)

Fill:[w/Light Distortion]
e|---------------|
B|------8---8----|
G|-7-9h---9---9~-|
D|---------------|
A|---------------|
E|---------------|

Intro: [Clean]
e|-----------------|
B|-----------------|
G|-----------------|
D|-5-5-5-5-5-5-5-5-|
A|-3-3-3-3-3-3-3-3-|
E|-----------------|
  |-------p.m.---|

Verse 1:"All I ever needed..."[Clean]
e|---------------------------------------------------------------------|
B|---------------------------------------------------------------------|
G|-10-10-10-10-10-10-10--12-12-12-12-12-12-12--------------------------|
D|-10-10-10-10-10-10-10--12-12-12-12-12-12-12--10-10-10-10-10-10-10-10-|
A|-8--8--8--8--8--8--8---10-10-10-10-10-10-10--10-10-10-10-10-10-10-10-|
E|---------------------------------------------8--8--8--8--8--8--8--8--|
  |----------------------------p.m-----------------------------------|

"Come on over, watch the late show..."
e|--------------------------------------------|
B|--------------------------------------------|
G|-10-10-10-10-10-10-10--12-12-12-12-12-12-12-|
D|-10-10-10-10-10-10-10--12-12-12-12-12-12-12-|
A|-8--8--8--8--8--8--8---10-10-10-10-10-10-10-|
E|--------------------------------------------|
  |--------------p.m-------------------------|

"Stay up talking..."
e|-------------------------------------|
B|-------------------------------------|
G|-13-13-13-13-13-13-14-14-14-14-14-14-|
D|-13-13-13-13-13-13-14-14-14-14-14-14-|
A|-11-11-11-11-11-11-12-12-12-12-12-12-|
E|-------------------------------------|
  |---------------p.m-----------------|

[Play verse 1 riffs under verse 2 riffs]

Verse 2: "A dream of our"[w/Light Distortion]
e|-----------------------------------------------------------------|
B|-----------------------------------------------------------------|
G|-----------------------------------------------------------------|
D|---------------------------------5-5-5-5-5-5-5-5-5-5-5-5-5-5-5-5-|
A|-3-3-3-3-3-3-3-3--5-5-5-5-5-5-5--3-3-3-3-3-3-3-3-3-3-3-3-3-3-3-3-|
E|-1-1-1-1-1-1-1-1--3-3-3-3-3-3-3----------------------------------|
   |-----------------------------p.m------------------------------|
   

Verse:"How so very far away..."
e|----------------------------------------------------------------|
B|----------------------------------------------------------------|
G|----------------------------------------------------------------|
D|----------------------------------------------------------------|
A|-3-3-3-3-3-3-3-3--5-5-5-5-5-5-5--6-6-6-6-6-6-6-6--7-7-7-7-7-7-7-|
E|-1-1-1-1-1-1-1-1--3-3-3-3-3-3-3--4-4-4-4-4-4-4-4--5-5-5-5-5-5-5-|
   |-----------------------p.m-----------------------------------|
[ Tab from: http://www.guitartabs.cc/tabs/m/mxpx/everything_sucks_when_youre_gone_tab.html ]
Pre-Chorus:"Today's the day you're leaving..."[w/LightDistortion]
e|-------------------------------------------|
B|-------------------------------------------|
G|---------------------------5-5-5-5-5-5-5-5-|
D|-3-3-3-3-3-3--5-5-5-5-5-5--5-5-5-5-5-5-5-5-|
A|-3-3-3-3-3-3--5-5-5-5-5-5--3-3-3-3-3-3-3-3-|
E|-1-1-1-1-1-1--3-3-3-3-3-3------------------|
  |----------------p.m.---------------------|

"You're in my heart and on my mind..."
e|----------------------------------|
B|----------------------------------|
G|---------------------------7-5----|
D|-3-3-3-3-3-3--6-6-6-6-6-6--7-5-7~-|
A|-3-3-3-3-3-3--6-6-6-6-6-6--5-3-7~-|
E|-1-1-1-1-1-1--3-3-3-3-3-3------5~-|
  |----------p.m.----------|

Chorus: "Everything sucks..."[w/Light Distrotion]
e|------------------------------|
B|------------------------------|
G|-----5-5-5-5-5-5--2-2-2-2-2-2-|
D|-3~--5-5-5-5-5-5--2-2-2-2-2-2-|
A|-3~--3-3-3-3-3-3--0-0-0-0-0-0-|
E|-1~---------------------------|

"Gone....
e|-----------------------------------------|
B|-----------------------------------------|
G|-5-5-5-5-5-5--3-3-3-3-3-3-3--2-2-2-2-2-2-|
D|-5-5-5-5-5-5--3-3-3-3-3-3-3--2-2-2-2-2-2-|
A|-3-3-3-3-3-3--1-1-1-1-1-1-1--0-0-0-0-0-0-|
E|-----------------------------------------|

Bridge: "It's not ok..."[w/Distortion]
e|---------------------------------------------------|
B|---------------------------------------------------|
G|-5-5-5-5-5-5-5-5-----------------------------------|
D|-5-5-5-5-5-5-5-5--8-8-8-8-8-8-8-8--3-3-3-3-3-3-3-3-|
A|-3-3-3-3-3-3-3-3--6-6-6-6-6-6-6-6--3-3-3-3-3-3-3-3-|
E|------------------4-4-4-4-4-4-4-4--1-1-1-1-1-1-1-1-|
  |------------------p.m.---------------------------|

"Ran..after...me..."
e|-----------------------------------------------------------|
B|-----------------------------------------------------------|
G|-----------------------------------------------------------|
D|-6-6-6-6-6-6--8-8-8-8-8-8--10-10-10-10-10-10-10-10-10-10\0-|
A|-6-6-6-6-6-6--8-8-8-8-8-8--10-10-10-10-10-10-10-10-10-10\0-|
E|-4-4-4-4-4-4--6-6-6-6-6-6--8--8--8--8--8--8--8--8--8--8-\0-|


Solo: [w/Light Distortion]
e|----------------------------------------------|
B|------8---8---------8---8--------8---10-------|
G|-7-9h---9---9--7-9h---9---9-7-9h---9-----7-9~-|
D|----------------------------------------------|
A|----------------------------------------------|
E|----------------------------------------------|

Outro: "Gone."[W/light distortion]
e|-------------|
B|-------------|
G|-------------|
D|-10~----10\0-|
A|-10~----10\0-|
E|-8-~----8-\0-|



[Lyrics]

All I ever needed was to eat popcorn with you,
Come on over,
Watch the late show,
Stay up talking until two

Today's the day you're leaving,
And tomorrow you'll be gone
You're in my heart and on my mind,
I will bring you along

Everything sucks when you're gone,
Everything sucks when you're gone

A dream of our reunion makes me crazy just to think,
How so very far away you are,
My hope begins to sink

Today's the day you're leaving,
And tomorrow you'll be gone
You're in my heart and on my mind,
I will bring you along

Everything sucks when you're gone,
Everything sucks when you're gone

It's not ok,
I've baked dinner here for two,
And it's not ok,
I've got candles lit for you,
And It's not ok,
I've got you're favorite records out,
And it's not ok,
You should have let it be,
And ran after me

Today's the day you're leaving,
And tomorrow you'll be gone
You're in my heart and on my mind,
I will bring you along

Everything sucks when you're gone,
(I want you! I need you!)
Everything sucks when you're gone
(I want you! I need you!) [x2]


| /  slide up
| \  slide down
| h  hammer-on
| p  pull-off
| ~  vibrato
| +  harmonic
| x  Mute note
=============================================================================
Comments