Mxpx - Do And Dont Chords & Tabs

 

Do And Dont Chords & Tabs

Mxpx Chords & Tabs

Version: 1 Type: Bass Tab 0 ratings
1 star 2 stars 3 stars 4 stars 5 stars
comments

Do And Dont Bass Tab

MxPx
Song:      Do And Don't
Album:     Teenage Politics
Tabbed by: BassD
				>= play a couple of time
Intro
G|-------------------------------------------------------------|
D|-------------------------------------------------------------|
A|----2>-0>-3-3-3-2-2-2-0-0-----2>-0>-3-3-3-2-2-2-0-0----------|
E|-3>------------------------3>--------------------------------|

G|-------------------------------------------------------------|
D|-------------------------------------------------------------|
A|----2>-0>-3-3-3-2-2-2-0-0-----2>-0>-3-3-3-2-2-2-0-0----------|
E|-3>------------------------3>--------------------------------|

G|------------------------------------|
D|------------------------------------|
A|----3-5----3-5----3-5---------------|
E|-3------3------3------3ring---------|

Verse
G|------------------------------------|
D|------------------------------------|
A|----2>-0>-3>-----2>-0--3------------|
E|-3>-----------3>--------------------|

G|------------------------------------|
D|------------------------------------|
A|----2>-0>-3>-----2>-0--3------------|
E|-3>-----------3>--------------------|

Pre-Chorus
G|-----------------------------------|
D|-----------------------------------|
A|-------3>-5>--------3>-5>----------|
E|-3>-0>--------3>-0>----------------|

Chorus (fast)
G|------------------------------------------------------------|
D|------------------------------------------------------------|
A|-------3>-5>--------3>-5>--------3>-5>--------3>-5>---------|
E|-3>-0>--------3>-0>--------3>-0>--------3>-0>---------------|

G|-----------------------------------|
D|-----------------------------------|
A|-------3>-5>--------3>-5>----------|
E|-3>-0>--------3>-0>----------------|

G|------------------------------------------------------------|
D|------------------------------------------------------------|
A|-0>-5>--0>-5>--0>-5>--0>-5>--3-3-3-2-2-2-0-0----------------|
E|------------------------------------------------------------|

Bridge (bass solo)
G|--------------------------------------------------------|
D|--------------------------------------------------------|
A|------------2--2-0-0-2-3--3-2-2-0-5--3--2---------------|
E|-3--3-2-2-3-------------------------------5-------------|

G|--------------------------------------------------------|
D|--------------------------------------------------------|
A|------------2--2-0-0-2-3--3-2-2-0-5--3--2---------------|
E|-3--3-2-2-3-------------------------------5-------------|

Verse
G|------------------------------------|
D|------------------------------------|
A|----2>-0>-3>-----2>-0>-3>-----------|
E|-3>-----------3>--------------------|
[ Tab from: http://www.guitartabs.cc/tabs/m/mxpx/do_and_dont_btab.html ]
G|------------------------------------|
D|------------------------------------|
A|----2>-0>-3>-----2>-0>-3>-----------|
E|-3>-----------3>--------------------|

Pre-Chorus (fast)
G|------------------------------------------------------------|
D|------------------------------------------------------------|
A|-------3>-5>--------3>-5>--------3>-5>--------3>-5>---------|
E|-3>-0>--------3>-0>--------3>-0>--------3>-0>---------------|

G|-----------------------------------|
D|-----------------------------------|
A|-------3>-5>--------3>-5>----------|
E|-3>-0>--------3>-0>----------------|

G|------------------------------------------------------------|
D|------------------------------------------------------------|
A|-0>-5>--0>-5>--0>-5>--0>-5>--3-3-3-2-2-2-0-0----------------|
E|------------------------------------------------------------|

Bridge
G|--------------------------------------------------------|
D|--------------------------------------------------------|
A|------------2--2-0-0-2-3--3-2-2-0-5--3--2---------------|
E|-3--3-2-2-3-------------------------------5-------------|

G|--------------------------------------------------------|
D|--------------------------------------------------------|
A|------------2--2-0-0-2-3--3-2-2-0-5--3--2---------------|
E|-3--3-2-2-3-------------------------------5-------------|

G|--------------------------------------------------------|
D|--------------------------------------------------------|
A|------------2--2-0-0-2-3--3-2-2-0-5--3--2---------------|
E|-3--3-2-2-3-------------------------------5-------------|

G|--------------------------------------------------------|
D|--------------------------------------------------------|
A|------------2--2-0-0-2-3--3-2-2-0-5--3--2---------------|
E|-3--3-2-2-3-------------------------------5-------------|

Outro
G|-------------------------------------------------------------|
D|-------------------------------------------------------------|
A|----2>-0>-3-3-3-2-2-2-0-0-----2>-0>-3-3-3-2-2-2-0-0----------|
E|-3>------------------------3>--------------------------------|

G|-------------------------------------------------------------|
D|-------------------------------------------------------------|
A|----2>-0>-3-3-3-2-2-2-0-0-----2>-0>-3-3-3-2-2-2-0-0----------|
E|-3>------------------------3>--------------------------------|

G|----------------------------------------|
D|----------------------------------------|
A|----3-5----3-5----3-5-------------------|
E|-3------3------3------3-----3-----------|

Phew!
That's long but I did it.
Try it out, the bass solo is cool to play.
Questions,???or whatever.
Email-me at= rancid_ska@hotmail.com

===============================================================================

Comments