Mxpx - Darkest Places Chords & Tabs

 

Darkest Places Chords & Tabs

Mxpx Chords & Tabs

Version: 1 Type: Bass Tab 0 ratings
1 star 2 stars 3 stars 4 stars 5 stars
comments

Darkest Places Bass Tab

   
Verse- 4x      (on the second time through play A:3-3-3 about 15 times more)

G:-------------------------------------------------------------------|
D:-------------------------------------------------------------------|
A:3-3-3-3-3-3-3-3-3-3-3-3-3-3-3-3-3--------------5-5-5-5-5-5-5-5-5-5-|
E:----------------------------------3-3-3-3-3-3-3--------------------|

G:----------------------------------------|
D:----------------------------------------|
A:3-3-3-3-3-3-3-3-0-0-0-0-1-1-1-1---------|  1x after the end 
E:--------------------------------1-1-1-1-|  of the verse.

Chorus- 1x

G:-------------------------------------------------------------------|
D:-------------------------------------------------------------------|
A:3-3-3-3-3-3-3-3-3-3-3-3-3-3-3-3-3--------------5-5-5-5-5-5-5-5-5-5-|
E:----------------------------------3-3-3-3-3-3-3--------------------|


Pause for Guitar And Drums

Verse#2 4x   (on the second time through play A:4-4-4 about 15 times more)


G:-------------------------------------------------------------------|
D:-------------------------------------------------------------------|
A:3-3-3-3-3-3-3-3-3-3-3-3-3-3-3-3-3--------------5-5-5-5-5-5-5-5-5-5-|
E:----------------------------------3-3-3-3-3-3-3--------------------|

[ Tab from: http://www.guitartabs.cc/tabs/m/mxpx/darkest_places_btab.html ]
G:----------------------------------------|
D:----------------------------------------|
A:3-3-3-3-3-3-3-3-0-0-0-0-1-1-1-1---------|  1x after the end 
E:--------------------------------1-1-1-1-|  of the verse.

Chorus- 2x

G:-------------------------------------------------------------------|
D:-------------------------------------------------------------------|
A:3-3-3-3-3-3-3-3-3-3-3-3-3-3-3-3-3--------------5-5-5-5-5-5-5-5-5-5-|
E:----------------------------------3-3-3-3-3-3-3--------------------|

Guitar solo 1x

G:-------------------------------------------------------------------|
D:-------------------------------------------------------------------|
A:3-3-3-3-3-3-3-3-3-3-3-3-3-3-3-3-3--------------5-5-5-5-5-5-5-5-5-5-|
E:----------------------------------3-3-3-3-3-3-3--------------------|

G:-------------------------------------------------------------------|
D:-------------------------------------------------------------------|
A:3-3-3-3-3-3-3-3-3-3-3-3-3-3-3-3-3--------------3-3-3-0-0-0-3-3-3-3-|
E:----------------------------------3-3-3-3-3-3-3--------------------|

Chorus- 2x
G:-------------------------------------------------------------------|
D:-------------------------------------------------------------------|
A:3-3-3-3-3-3-3-3-3-3-3-3-3-3-3-3-3--------------5-5-5-5-5-5-5-5-5-5-|
E:----------------------------------3-3-3-3-3-3-3--------------------|

Ending   (after guitar and drums)
G:--------|
D:--------|
A:3~~~~~~~
E:--------

Comments