Mxpx - Cristalena Chords & Tabs

 

Cristalena Chords & Tabs

Mxpx Chords & Tabs

Version: 3 Type: Bass Tab 0 ratings
1 star 2 stars 3 stars 4 stars 5 stars
comments

Cristalena Bass Tab

Song: Cristalena
Band: MxPx
Album: Life in General
Tabbed By: Doug ( footprints@theoffice.net )

*---------Original Tab by Chris ( NSherw5893@aol.com )----------*
G:---------------------------------------------------------------
D:---------------------------------------------------------------
A:--5 a bunch of times-------------------------------------------
E:---------------------------------------------------------------

G:---------------------------------------------------------------
D:---------------------------------------------------------------
A:-----3----5-3------3-----5-3-----------------------------------
E:--3----3--------3------3---------------------------------------
[ Tab from: http://www.guitartabs.cc/tabs/m/mxpx/cristalena_btab_ver_3.html ]
G:---------------------------------------------------------------
D:---------------------------------------------------------------
A:----3----5-3------3------5--3----------------------------------
E:-3----3--------0------0----------------------------------------

G:---------------------------------------------------------------
D:---------------------------------------------------------------
A:----3-------5--------------------------------------------------
E:-0-----3-------------------------------------------------------

*------End. Begin Tab by Doug ( footprints@theoffice.net )------*
G:-----------------------------0-----------------0-0-------------
D:-----------2--0-----0-----------------------0-------4-4--3-3--2
A:----2---2--------3-----0--3-----2--0--2--3---------------------
E:--3---3--------------------------------------------------------

G:---------------------------------------------------------------
D:-2--1-1--0-0---------------------------------------------------
A:--------------3-3--2-2-----------------------------------------
E:------------------------3--(Hold until fade-out)---------------

That's it.
Comments