Mxpx - Chick Magnet Chords & Tabs

 

Chick Magnet Chords & Tabs

Mxpx Chords & Tabs

Version: 8 Type: Tab 0 ratings
1 star 2 stars 3 stars 4 stars 5 stars
comments

Chick Magnet Tab

Title: Chick Magnet
Artist: MxPx
Tabbed By: Charlotte G (fingers_crossed)
Date: 12th September 2003
E-Mail: sharly_poos@hotmail.com

0.00 Intro
|---------------------|
|---------------------|
|---------------------|
|---------------------|
|-0-3-2-0-------------|
|---------3-0-1-0-1-3-| x 6

0.16 Verse 1 - Intro x 8

0.38 Pre-Chorus
|------------------------------------------|
|------------------------------------------|
|------------------------------------------|
|-5--5-5--5-5--5-5--5--3--3-2--2-3--3-5--5-|
|-3--3-3--3-3--3-3--3--3--3-2--2-3--3-5--5-|
|------------------------------------------| x 4
[ Tab from: http://www.guitartabs.cc/tabs/m/mxpx/chick_magnet_tab_ver_8.html ]
0.50 Chorus
|--------------------------------------------------------------------|
|--------------------------------------------------------------------|
|--------------------------------------------------------------------|
|-2---2---2---2----2---2---2---2----3---3---3---3----3---3---5-------|
|-0---0---0---0----0---0---0---0----3---3---3---3----3---3---3---5---|
|----------------------------------------------------------------3---| x 3
1.07 then
|--------------------------------------------------------------------------|
|--------------------------------------------------------------------------|
|--------------------------------------------------------------------------|
|-2---2---2---2---2---2---2---2------------------------5-5-5-5-5-5-5-5-5-5-|
|-0---0---0---0---0---0---0---0---5--5-5--5-5--5-5--5--5-5-5-5-5-5-5-5-5-5-|
|---------------------------------3--3-3--3-3--3-3--3----------------------|

1.12 Intro x 4

1.23 Verse 2 = Intro x 8

1.45 Pre-Chorus x 4

1.56 Chorus

2.19 Intro x 8

2.40 Pre-Chorus x 8

3.03 End On - |---|
              |---|
              |---|
              |-5-|
              |-3-|
              |---|
Comments