Mxpx - Chick Magnet Chords & Tabs

 

Chick Magnet Chords & Tabs

Mxpx Chords & Tabs

Version: 7 Type: Tab 0 ratings
1 star 2 stars 3 stars 4 stars 5 stars
comments

Chick Magnet Tab

hey evry1,awesome,not a perfect tab but not bad either

intro
e--------------------------------------------------------------------------
b-------------------5------------------------------------------------------
g-------xx-xx-xx-5--5------------------------------------------------------
d-------xx-xx-xx-5--5(1 note at a time)------------------------------------
a-------xx-xx-xx-3--3------------------------------------------------------
e--------------------------------------------------------------------------
[ Tab from: http://www.guitartabs.cc/tabs/m/mxpx/chick_magnet_tab_ver_7.html ]
Verse
e--------------------------------------------------------------13-13-13-13----
b-----------------------------------------------------------------------------
g-----5----5--5------5-------5-5-5------5-------5--5-------5------------------
d-----5-----5-5------5--------5--5------5--------5-5-------5------------------
a-----3---3---3------3-----------3------3------3---3-------3------------------
e-----------------------------------------------------------------------------

chorus
e--------------------------------
b--------------------------------
g----5---------------------------  X 5
d----5(X8)---33-22-33-55---------
a----3-------33-00-33-55---------
e------------11-00-11-33---------

e-------------------------------------------------
b-------------------------------------------------
g-----------------------------------5-------------
d----7-7-7-7-7-7-7-7----55--55--55--5-5----------- X 4
a----7-7-7-7-7-7-7-7----55--55--55--3-5-----------
e----5-5-5-5-5-5-5-5----33--33--33----3-----------
Comments