Mxpx - Chick Magnet Chords & Tabs

 

Chick Magnet Chords & Tabs

Mxpx Chords & Tabs

Version: 1 Type: Tab 0 ratings
1 star 2 stars 3 stars 4 stars 5 stars
comments

Chick Magnet Tab

   
This one's an easy piece for guitar, yet it's really fun to play. It's all about the bass on this one really.

a.)
-after four measures of four-four rest:

E -----------------
B -----------------
G ------5----------
D ------5----------
A ------3----------
E -----------------
-every four measures, let chord ring out

b.)
Let the whole chord ring out, then alternate the individual notes every line of the verse.

E -------------------------------------------||-------------------------------------
B -------------------------------------------||-------------------------------------
G ------5----------5-----------5-------------||----5-------5-------5-------5--------
D ------5------5-------5------5--------------||----5-----------5-----------5--------
A ------3----------------------3-------------||----3-----------------------3--------
E -------------------------------------------||-------------------------------------

 "Well he's a chick magnet if you know what I mean.
 The way the girls just go to him well you shouldv'e seen."

c.)
[ Tab from: http://www.guitartabs.cc/tabs/m/mxpx/chick_magnet_tab.html ]
E -------------------------------------------------------------------------------
B -------------------------------------------------------------------------------
G ------5---5---5---5-------------------------5---5---5---5----------------------
D ------5---5---5---5-----3---2---3---5-------5---5---5---5------3---2---3---5---
A ------3---3---3---3-----3---2---3---5-------3---3---3---3------3---2---3---5---
E ------------------------1---0---1---3--------------------------1---0---1---3---

d.)

E -------------------------------------------------------------------------------
B -------------------------------------------------------------------------------
G ------2---2---2---2------2---2---2---2------5---5---5---5------5---5---5-------
D ------2---2---2---2------2---2---2---2------5---5---5---5------5---5---5---5---
A ------0---0---0---0------0---0---0---0------3---3---3---3------3---3---3---5---
E ---------------------------------------------------------------------------3---

e.)

E ---------------------------------------------------------------------------------
B ---------------------------------------------------------------------------------
G ------2---2---2---2------2---2---2---2------7---7---7---7------7---7---7---7-----
D ------2---2---2---2------2---2---2---2------7---7---7---7------7---7---7---7-----
A ------0---0---0---0------0---0---0---0------5---5---5---5------5---5---5---5-----
E ---------------------------------------------------------------------------------

Order:  A x 3    |    then: D x 3   |    repeat the whole thing over, and then once more.     
        B x 2    |          E x 1   |    End with C root 5 power chord. (the first chord)
        C x 2    |                  |
Comments