Mxpx - Chick Magnet Chords & Tabs

 

Chick Magnet Chords & Tabs

Mxpx Chords & Tabs

Version: 6 Type: Bass Tab 0 ratings
1 star 2 stars 3 stars 4 stars 5 stars
comments

Chick Magnet Bass Tab

This is my first on this site. Rate it. Now. I'm positive its perfect

INTRO, VERSE, BRIDGE
G------------------------------------------------|
D------------------------------------------------|
A---0h3-2-0--------------------------------------|
E-----------3-0h1-0-1-3--------------------------|

~goes through the verse; when he stops singing play:
[ Tab from: http://www.guitartabs.cc/tabs/m/mxpx/chick_magnet_btab_ver_6.html ]
G------------------------------------------------|
D------2-3-5-------------------------------------|
A--0h3-------------------------------------------|
E-------------0h1-0-1-3--------------------------|

~then about 2 seconds before,"he aint got a girlfriend" starts, play:

G-------------------------------------------------|
D-------------------------------333333333333--3---|
A-----------------------------------------------3-|
E-----50h50h50h50h50h50h50h50h5-------------------|

most tabs just have "-555555555555555-" but im positive its
how i have it, ive seen them live twice.


-just play the beginning part (intro) for the bridge, and that last part
for the outro.........like i said, rate it.
Comments