Mxpx - Chick Magnet Chords & Tabs

 

Chick Magnet Chords & Tabs

Mxpx Chords & Tabs

Version: 3 Type: Bass Tab 0 ratings
1 star 2 stars 3 stars 4 stars 5 stars
comments

Chick Magnet Bass Tab

MxPx:  Chick Magnet

h = hammer on

Intro:

G |----------------------------------------------------------------------------------
D |----------------------------------------------------------------------------------
A |-0h3-2-0--------------------------------------------------------------------------
E |------------3-0h1-0-1-3-----------------------------------------------------------

Verse 1:

G |----------------------------------------------------------------------------------
D |--------2-3-5---------------------------------------------------------------------
A |-0h3------------------------------------------------------------------------------
E |----------------1-0-1-3-----------------------------------------------------------

Chorus:
[ Tab from: http://www.guitartabs.cc/tabs/m/mxpx/chick_magnet_btab_ver_3.html ]
G |----------------------------------------------------------------------------------
D |----------------------------------------------------------------------------------
A |-5-5-5-5-5-5-5-5----------------------------------------3-------------------------
E |----------------------1--1-1-1---1--1-1-1---1--1-1-1----3-------------------------


Chorus Variation:

G |----------------------------------------------------------------------------------
D |----------------------------------------------------------------------------------
A |-5-5-5-5-5-5-5-5------------------------------------------------------------------
E |----------------------1--1-1-1---1--1-1-1---1--1-1-1---1--1-1-1-------------------

Song Order:

Intro               x 14
Verse 1             x 4
Chorus              x 3
Chorus Variation    x 1
Intro               x 12
Verse 1             x 4
Chorus              x 3
Chorus Variation    x 1
Intro               x 8
Verse 1             x 8
Comments