Mxpx - Blue Moon Chords & Tabs

 

Blue Moon Chords & Tabs

Mxpx Chords & Tabs

Version: 2 Type: Bass Tab 0 ratings
1 star 2 stars 3 stars 4 stars 5 stars
comments

Blue Moon Bass Tab

Song: Blue Moon
Band: MxPx
Tabbed By: Kurt   wsu182@hotmail.com


Intro:
G------------------------------
D------4-----------------------
A-57---------4-5------------4-    X1
E----------7--------0--7--5----

G-------------------------------
D------4------------------------
A-57---------4-5-------------4-    X2
E---------7--------0--7--5--3---

G----------------
D----------------
A-5-----------5--    X1
E----5--3-2-0----
[ Tab from: http://www.guitartabs.cc/tabs/m/mxpx/blue_moon_btab_ver_2.html ]
Verses
G----------------------------------------
D----------------------------------------
A-5555555522222222----------------------   X3
E--------------------00000000055555555--

G-----------------------------------------
D-----------------------------------------
A-55555555---------55555555--------------   X1
E-----------33333333---------55555555-----

Bridge
G--------------------------------
D--------------------------------
A----------------------55555555--   X2
E--33333333--55555555------------

G------------------------------------------------------
D------------------------------------------------------
A---------------------88888888-------------------------   X1
E--3333333366666666--------------55555500000000555555

Then do the verse twice again to end it.
Comments