Mxpx - Barbie Girl Chords & Tabs

 

Barbie Girl Chords & Tabs

Mxpx Chords & Tabs

Version: 2 Type: Tab 0 ratings
1 star 2 stars 3 stars 4 stars 5 stars
comments

Barbie Girl Tab

   
Song: Barbie girl
Artist: Mxpx
Tuning: Standard (E,A,D,G,B,E)
ftolone@hotmail.com

I listened to this song a couple of months ago, and when i decided to play it, i didn't 
find any tab for it, so i tabbed it. I think this is correct, but mail me any corrections.

Intro (I'm a barbie girl...)
-----------------------------------------------------
-----------------------------------------------------
-----------------------------------------------------
-8---4---6---11--------------------------------------  x6
-8---4---6---11--------------------------------------
-6---2---4---9---------------------------------------

Chorus (I'm a barbie girl...)
-----------------------------------------------------
-----------------------------------------------------
-----------------------------------------------------
-8-8-8-8--4-4-4-4--6-6-6-6--11-11-11-11--------------  x4
-8-8-8-8--4-4-4-4--6-6-6-6--11-11-11-11--------------
-6-6-6-6--2-2-2-2--4-4-4-4--9--9--9--9---------------
[ Tab from: http://www.guitartabs.cc/tabs/m/mxpx/barbie_girl_tab_ver_2.html ]
Verse
-----------------------------------------------------
-----------------------------------------------------
-----------------------------------------------------
-8---4---6---11-----------------2nd time palm muted--  x2
-8---4---6---11--------------------------------------
-6---2---4---9---------------------------------------

Pre chorus (Come on barbie...)
-----------------------------------------------------
-----------------------------------------------------
-----------------------------------------------------
-8-8-8-8---11-11-11-11-------------------------------  x2
-8-8-8-8---11-11-11-11-------------------------------
-6-6-6-6---9--9--9--9--------------------------------

-----------------------------------------------------
-----------------------------------------------------
-----------------------------------------------------
-8-8-8-8--4-4-4-4--6-6-6-6--11-11-11-11--------------  x4
-8-8-8-8--4-4-4-4--6-6-6-6--11-11-11-11--------------
-6-6-6-6--2-2-2-2--4-4-4-4--9--9--9--9---------------

End
-----------------------------------------------------
-----------------------------------------------------
-----------------------------------------------------
-8-8-8-8--4-4-4-4--11--8-----------------------------
-8-8-8-8--4-4-4-4--11--8-----------------------------
-6-6-6-6--2-2-2-2--9---6-----------------------------

ORDER

Intro
Chorus
Verse
Pre chorus
Chorus
End
Comments