Mustard Plug - You Chords & Tabs

 

You Chords & Tabs

Mustard Plug Chords & Tabs

Version: 1 Type: Chords 0 ratings
1 star 2 stars 3 stars 4 stars 5 stars
comments

You Chords

   
#----------------------------------PLEASE NOTE---------------------------------#
#This file is the author's own work and represents their interpretation of the #
#song. You may only use this file for private study, scholarship, or research. #
#------------------------------------------------------------------------------#

Date: Fri, 16 Jan 1998 23:15:56 EST
From: STR8EDGE91 
Subject: guitar tab

Artist:Mustard Plug
Song:You
Album:EvilDoers Beware
Transcribed By:Josh Hollis

THIS IS THE INTRO AND VERSE:
         A#    D     D#     F
E-------6------X------X------X            
B-------6------7------8-----10
G-------7------7------8-----10           DO THIS 6X
D-------8------7------8-----10
A-------8------5------6------8
E-------6------X------X------X

THEN HE SWITHCHES TO THIS FOR THE 7TH AND 8TH:
        A#    F       C      D#
E------6------X-------8-------X
B------6-----10------8-------8
G------7-----10------9-------8
D------8-----10-----10-------8
A------8------8------10-------6
E------6------X-------8-------X
[ Tab from: http://www.guitartabs.cc/tabs/m/mustard_plug/you_crd.html ]
THEN HE DOES THIS WITH DISTORTION 3X:
        G     D#
E------3------X
B------3------8
G------4------8
D------5------8
A------5------6
E------3------X

BRIDGE, DISTORTED, ONCE:
        D      F
E------X------X
B------7------10
G------7------10
D------7------10
A------5------8
E------X------X

CHORUS, DISTORTED, 4X:
        A#    D     G      D#
E------6------X------3------X
B------6------7----3-------8
G------7------7----4-------8
D------8------7----5-------8
A------8------5------5------6
E------6------X------3------X

HE DOES THIS PATTERN THROUGH THE SONG AND A THE VERY END HE DOES THIS  4X:
        A#    F      D#           F OCTAVE
E------6------X------X--SLIDE--X
B------6------10----8--SLIDE--X
G------7------10----8--SLIDE--10
D------8------10----8--SLIDE--X
A------8------8------6--SLIDE--8
E------6------X------X--SLIDE--X


This song has a basic ska rhythm, but it's hard to explain so you'll have to
figure it out by listening to the song.  He also hits the 1st down stroke,
instead of muting it.


If you have any questions, e-mail me at STR8EDGE91@aol.com
Comments