Mustard Plug - Jerry Chords & Tabs

 

Jerry Chords & Tabs

Mustard Plug Chords & Tabs

Version: 1 Type: Bass Tab 0 ratings
1 star 2 stars 3 stars 4 stars 5 stars
comments

Jerry Bass Tab

   
Bass Tab: Jerry 
Artist: Mustard Plug 
Album: Evildoers Beware! 
Author: Rattman (jratt0@hotmail.com) 
The begining of this song is slightly confusing, it sounds like there are 
two bass guitars, I think the first part is just a palm muted 6-string 
but you can play either part on either guitar and it sounds good. The 
intro has exact picking ammounts. 
  

Intro Solo: 

Riff 1 (starts the song) 
G---------------------------------------------------------------- 
D---------------------------------------------------------------- 
A-----------------1-1-1-1-1-1-1-1-----------------4-4-4-4-4-4-4-4 
E-4-4-4-4-4-4-4-4-----------------2-2-2-2-2-2-2-2---------------- 

Riff 2 (second guitar joins first Riff after 2) 
[ Tab from: http://www.guitartabs.cc/tabs/m/mustard_plug/jerry_btab.html ]
[--------------Repeat Once---------------] 
G----------------------------------------------- 
D-/6-6-6-6-6-3-4-4-3-3-1-3-3-1-------------4-4-4 
A------------------------------4-4-4-4-4-4------ 
E----------------------------------------------- 
  

Verses: 

G--------------------------- 
D---6-3--------------------- 
A-4-----4-3-1-4-3-1-4-3-1--- 
E-------------------------4- 

Chorus: 

("I wasnt like you...") 
G------------------------------------------- 
D------------------------------------------- 
A-------------------------------4-4-4-4-4-4- 
E-4-4-4-4-6-6-6-6-6-6-2-2-2-2-2------------- 
  

Ends on: 
G--- 
D--- 
A--- 
E-4- 
  

Taken From Padrino's Bass Tab Archive: http://members.xoom.com/jszalma/

Comments