Music - Take The Long Road And Walk It Chords & Tabs

 

Take The Long Road And Walk It Chords & Tabs

Music Chords & Tabs

Version: 3 Type: Tab 1 rating
1 star 2 stars 3 stars 4 stars 5 stars
comments

Take The Long Road And Walk It Tab

The Band: The Music
The Song: Take the Long Road and Walk it
Transcribed By: John H (ChildsHead)

This riff is repeated until you go mad!
E-------------------------------|
B-------------------------------|
G-------------------------------|
D---7-5h7---7-7--5--------------|
A-0-------0--------7p6-5p0------|
E-------------------------------|


The is the variation to the riff.
E---------------------------------
B---------------------------------
G-------------5-5-7p5-------------
D---7-5h7---7---------7-----------
A-0-------0-----------------------
E---------------------------------

[ Tab from: http://www.guitartabs.cc/tabs/m/music/take_the_long_road_and_walk_it_tab_ver_3.html ]
This part is the break down and then it plays the first riff.
E-------------------------------------------------------------------------------
B-------------------------------------------------------------------------------
G-------------------------------------------------------------------------------
D---7-7--7--7--7---10--10---10--10---10---9-9---9-9---9---12-12---12-12--12-----
A-0-----0----0----0-------0-------0-----0-----0-----0---0-------0------0--------
E------------------------------------------------------------------------------- 

Corrections and comments all go to childshead@hotmail.com. I know the whole 
song isn't here but I have only heard the song about 5 times, I'm hopefully gonna tab 
out the whole of The Music's album, E-Mail me for any requests. 
John.
Comments