Music - New Instrumental Chords & Tabs

 

New Instrumental Chords & Tabs

Music Chords & Tabs

Version: 2 Type: Tab 0 ratings
1 star 2 stars 3 stars 4 stars 5 stars
comments

New Instrumental Tab

   
The Music
New Instrumental

Effects used are a zoom GFX-8 (i think) and would imagine
that the following FX are used:
WAH FUZZ
DELAY
ECHO or HALL
Dunlop Crybaby


(A)
|-12-10h12----------------------------|     
|----------13-12----------------------|     
|-------------------12-14-16----------| 
|-------------------------------------| 
|-------------------------------------| 
|-------------------------------------|

after doing the main riff 3 times, add this
little bit below only once in the biginning 
then a couple of times during the main intro
but listen for the timing as its very quick

|------12-10h12------------------------|
|----------------13-12----------------|
|-----------------------16p14h16------| 
|-------------------------------------| 
|-------------------------------------| 
|-------------------------------------|


(B)
|---8--8--7--7--7----8--8--7--7--7----|
|-10-10-10-10-10---10-10-10-10-10-----|
|-------------------------------------| 
|-------------------------------------| 
|-------------------------------------| 
|-------------------------------------|
[ Tab from: http://www.guitartabs.cc/tabs/m/music/new_instrumental_tab_ver_2.html ]
|---8--8--7--7--7----8--8--10--10--10-|
|-10-10-10-10-10---10-10-10--10--10---| 
|-------------------------------------| 
|-------------------------------------| 
|-------------------------------------| 
|-------------------------------------|

(C)
|-12-10h12-12-----10-----17-----15----|
|-------------------------------------| 
|-------------------------------------| 
|-------------------------------------| 
|-------------------------------------| 
|-------------------------------------|

(D)
|-------------------------------------|
|----------------13-12-11h12----------| 
|-11-12-11-12-11-------------11-------| 
|-------------------------------------| 
|-------------------------------------| 
|-------------------------------------|

the order goes something like this
(A) x 66 (i think!)
(B) 
(C) 
(B) 
(A) x 4
(B) 
(C)
(D) x about 20
(A) x 4
(B)
(A) x 8
(B) - repeat first part twice
(A) x 2
(B) - repeat first part twice 
(A) x 6 

there are probably quite a few differences
each time they play it live, so i dunno why
i bothered with that last bit, its quite easy
to mess about with. Rob Harvey's bit is quite
simple so u can probably pick that up anyway, 
plus there's quite a bit of distortion and
feedback and i wouldnt know how to go about tabbing that.
enjoy anyway

Muna
Storm_blu69@hotmail.com
Comments