Mushroomhead - Xeroxed Chords & Tabs

 

Xeroxed Chords & Tabs

Mushroomhead Chords & Tabs

Version: 2 Type: Tab 0 ratings
1 star 2 stars 3 stars 4 stars 5 stars
comments

Xeroxed Tab

Xeroxed from Mushroomhead
Tuning: (AEADGBe) But a 7 string isn`t needed anyway.
-keep in mind you`ll just have to listen for the timing
Of the palm mutes.

Intro
----------      ---------------      ---------|
----------      ---------------      ---------|
----------      ---------------      ---------|
---------- (X1) --------------- (x3) ---------|
----------      -5-6-5---------      ---------| (X1)
-555-555--      -5-6-5-555-555-      -8-6-5---|
-555-555--      -5-6-5-555-555-      -8-6-5---|
 ... ...               ... ...
[ Tab from: http://www.guitartabs.cc/tabs/m/mushroomhead/xeroxed_tab_ver_2.html ]
Verse 1 (fast riff)
-------------------------|
-------------------------|
-------------------------|
-------------------------| (X2)
-------------------------|
-------------------------|
-5555--5555--5555--5555--|
 ....  ....  ....  ....
Verse 2 (even faster riff)
---------------------------------------|
---------------------------------------|
---------------------------------------|
------------------------------------8--| (X8)
------------------------------------8--|
-5555-5555-5555-5555-5555-5555-5555-6--|
-5555-5555-5555-5555-5555-5555-5555----|
 .... .... .... .... .... .... ....
Chorus = Intro
-play verse 1 and verse 2

Outro 1(Repeat just the first part of the intro 8 times, easy)

Outro 2 (smash those palm mutes on the last time)
------------|
------------|
------------|
------------| (X8)
-65---------|
-65-5555----|
-65-5555----|
    ....
Comments