Mushroomhead - Wrist Chords & Tabs

 

Wrist Chords & Tabs

Mushroomhead Chords & Tabs

Version: 1 Type: Tab 0 ratings
1 star 2 stars 3 stars 4 stars 5 stars
comments

Wrist Tab

Song: The Wrist from Mushroomhead
Tuning: 7 string standard dropped open(AEADGBe) 7 string not needed.
Remember, like all Mushroomhead songs, listen to the timing on the song.

Intro: Starts off with just keyboard, feedback and volume swells then.

Verse
----------------------|
----------------------|
----------------------|
----------------------|(x4)
-222-22-2-333-33-3----|
-222-22-2-333-33-3----|
-222-22-2-333-33-3----|
 ... .. . ... .. .
Chorus(the slide just means to slide down into the riff from anywhere. Each ring is held 
a 2 count)
----------------------|
----------------------|
----------------------|
----------------------|(X1)
-//5~-3~-0~-0~--------|
-//5~-3~-0~-0~--------|
-//5~-3~-0~-0~--------|

Verse 2: play the verse full twice, and when you're on the 4th time through the riff, 
the PM, and only on the 4th time.

Chorus: play twice, and only dot he sldie the first time.
Verse 3: the first half is just keyboard, then play:
----------------------|
----------------------|
----------------------|
----------------------|(x4)
-222-22222-000--------|
-222-22222-000--------|
-222-22222-000--------|
 ... ..... ...
the play this riff x4 without any palm muting.
Interlude(extended verse pretty much)
----------------------|
----------------------|
----------------------|
----------------------|(x1)
-2~-3/2-2~-3/2--------|
-2~-3/2-2~-3/2--------|
-2~-3/2-2~-3/2--------|
[ Tab from: http://www.guitartabs.cc/tabs/m/mushroomhead/wrist_tab.html ]
----------------------|
----------------------|
----------------------|
----------------------|(x2)
-222-22222-000--------|
-222-22222-000--------|
-222-22222-000--------|
 ... ..... ...
---------------------------|
---------------------------|
---------------------------|(x1, the slide emans give a huge slide down)
---------------------------|
-2~-3/2-2~-22~-3/2-2~-///--|
-2~-3/2-2~-22~-3/2-2~-///--|
-2~-3/2-2~-22~-3/2-2~-///--|

----------------------|
----------------------|
----------------------|
----------------------|(x2)
-222-22222-000--------|
-222-22222-000--------|
-222-22222-000--------|
 ... ..... ...
----------------------|
----------------------|
----------------------|
----------------------|(x1)
-2~-3/2-2~-3/2--------|
-2~-3/2-2~-3/2--------|
-2~-3/2-2~-3/2--------|

----------------------|
----------------------|
----------------------|
----------------------|(x4)
-222-22222-000--------|
-222-22222-000--------|
-222-22222-000--------|
 ... ..... ...
then play that riff x4 again without any PM
Chorus: play x4, remember to only slide the first time.
When done, let the zeros ring out into feedback for about an 8 count.

Outro:play whole thing x3, but play first part x4 the last time through instead of x2.
----------------------|
----------------------|
----------------------|
----------------------|(x2)
-222-22222-000--------|
-222-22222-000--------|
-222-22222-000--------|

------|
------|
------|
------|(ring for an 8 count)
-2~---
-2~---
-2~---
Comments