Mushroomhead - War Inside Chords & Tabs

 

War Inside Chords & Tabs

Mushroomhead Chords & Tabs

Version: 2 Type: Tab 0 ratings
1 star 2 stars 3 stars 4 stars 5 stars
comments

War Inside Tab

The War Inside from Mushroomhead
Tabbed by: 2fisted
Tuning: Drop D standard 7 string tuning AEADGBe (7 string not needed)

Intro(4th time, don't do the last note)
-----------|
-----------|
-----------|
-----------| X4
-0h4-------|
-0h4--0~---|
-0h4--0~---|

Verse
------------------------------------------|
------------------------------------------|
------------------------------------------|
------------------------------------------|
-0h4-0h4-0h4-0h4-------0h4-0h4-0h4-0h4----| X4
-0h4-0h4-0h4-0h4-0000--0h4-0h4-0h4-0h4-0~-|
-0h4-0h4-0h4-0h4-0000--0h4-0h4-0h4-0h4-0~-|
                 ....
Chorus(listen to pattern, it's a bit slow)
--------------------------------|
--------------------------------|
--------------------------------|
--------------------------------| X3
-5--5--7--7-7-7--2--2-2--2-2-2--|
-5--5--7--7-7-7--2--2-2--2-2-2--|
-5--5--7--7-7-7--2--2-2--2-2-2--|
then
-----------------|
-----------------|
-----------------|
-----------------|
-5--5--7--7-7-7--|
-5--5--7--7-7-7--|
-5--5--7--7-7-7--|

Post Chorus(skip last 4 notes second time through)
-------------------------------------------|
-------------------------------------------|
-------------------------------------------|
-------------------------------------------| X2
-0h4-0h4-0h4-0h4-----0h4-0h4-0h4-0h4-------|
-0h4-0h4-0h4-0h4-0~--0h4-0h4-0h4-0h4-0000--|
-0h4-0h4-0h4-0h4-0~--0h4-0h4-0h4-0h4-0000--|
                                     ....
-verse
-chorus
[ Tab from: http://www.guitartabs.cc/tabs/m/mushroomhead/war_inside_tab_ver_2.html ]
Interlude 1(whole thing once)
-----      ----------|
-----      ----------|
-----      ----------|
-----about ----------|
-0h4- X19  ----------|
-0h4-      -000-000--|
-0h4-      -000-000--|
            ... ...
Interlude 2(whole thing once)
-----     -----      ---------------|
-----     -----      ---------------|
-----     -----      ---------------|
-----just -----about ---------------|
-0h4-once -0h4- X18  ---------------|
-0h4-then -0h4-      -00-0000-0000--|
-0h4-     -0h4-      -00-0000-0000--|
           . .        .. .... ....
Interlude 3
--------------------|
--------------------|
--------------------|
--------------------| X2
---2---2-----2---2--|
-2-2-2-2---2-2-2-2--|
-2-2-2-2---2-2-2-2--|
 .   .     .   .
Interlude 4
------------------   -------------------------|
------------------   -------------------------|
------------------   -------------------------|
------------------X3 ---------|-fast-|--------|
-2222222222222222-   -22222222-222-22-2-2-2---|
-2222222222222222-   -22222222-222-22-2-2-2---|
-2222222222222222-   -22222222-222-22-2-2-2---|
 ................     ........ ... .. . . .
Interlude 5(listen to timing)
---
---
---
---
-2- X4
-2-
-2-
 .
-verse
-chorus

Outro(yes, that last note was meant to have no PM)
------------------   ----------------|
------------------   ----------------|
------------------   ----------------|
------------------X7 ----------------|
-2222222222222222-   -2222222222222--|
-2222222222222222-   -2222222222222--|
-2222222222222222-   -2222222222222--|
 ................     ............
Comments