Mushroomhead - War Inside Chords & Tabs

 

War Inside Chords & Tabs

Mushroomhead Chords & Tabs

Version: 1 Type: Tab 0 ratings
1 star 2 stars 3 stars 4 stars 5 stars
comments

War Inside Tab

   
7-string tuning(B E A D G B E)

intro
|------------------------------|
|------------------------------|
|------------------------------|
|------------------------------|
|555--2--555--2--555--2--555---|
|555--2--555--2--555--2--555---|
|355--0--333--0--355--0--333---|

verse
|-----------------------------------------|
|-----------------------------------------|
|-----------------------------------------|
|-----------------------------------------|
|-----------------------------------------|
|----------------2------------------------|
|0-3-0-3-0-3-0-3-0----0-3-0-3-0-3-0-3-0000|

chorus
|----------------|
|----------------|
|----------------|
|----------------|
|5555--7777--2222|
|5555--7777--2222|
|3333--5555--0000|

bridge
|-------------------------------------------------------------------|
|-------------------------------------------------------------------|
|-------------------------------------------------------------------|
|-------------------------------------------------------------------|
|-------------------------------------------------------------------|
|-------------------------------------------------------------------|
|0-3-0-3-0-3-0-3-0-3-0-3-0-3-0-3-0-3-0-3-0-3-0-3-0-3-0-3-0-0-0-0-0-0|

pm                                                       ............

[ Tab from: http://www.guitartabs.cc/tabs/m/mushroomhead/war_inside_tab.html ]
|-------------------------------------------------------------------|
|-------------------------------------------------------------------|
|-------------------------------------------------------------------|
|-------------------------------------------------------------------|
|-------------------------------------------------------------------|
|-------------------------------------------------------------------|
|0-3-0-3-0-3-0-3-0-3-0-3-0-3-0-3-0-3-0-3-0-3-0-3-0-3-0-3-0-0-0-0-0-0|

pm   ................................................................

|---------------------------------|
|---------------------------------|
|---------------------------------|
|---------------------------------|
|22--22---22--22---22--22---22--22|
|22--22---22--22---22--22---22--22|
|00--00---00--00---00--00---00--00|


|-----------------------------------------|
|-----------------------------------------|
|-----------------------------------------|
|-----------------------------------------|
|-----------------------------------------|
|-----------------------------------------| alternate pick
|00000000000000000000000000000000000000000|

pm.........................................

|----------------|
|----------------|
|----------------|
|----------------|
|2----2----2----2|
|2----2----2----2|
|0----0----0----0|

play verse again

and then chorus

outro
|-----------------------------------------|
|-----------------------------------------|
|-----------------------------------------|
|-----------------------------------------|
|-----------------------------------------|
|-----------------------------------------| alternate pick
|00000000000000000000000000000000000000000|

pm.........................................
Comments