Mushroomhead - Sun Doesnt Rise Chords & Tabs

 

Sun Doesnt Rise Chords & Tabs

Mushroomhead Chords & Tabs

Version: 2 Type: Tab 0 ratings
1 star 2 stars 3 stars 4 stars 5 stars
comments

Sun Doesnt Rise Tab

#-----------------------------------------------------------------------------#
#-- File created with Instab - http://www.pconline.com/~smcarey/instab.html --#
#-----------------------------------------------------------------------------#

Author/Artist: Mushroomhead
Title: Sun Doesn't Rise
Album: XIII
Transcribed by: Andrew Hitchcock
Email: andyhitch@comcast.net

This is a great song which I can't stop listening to. 
It is in CGCFAd tuning for 6-sting.  I know Mushroomhead
uses 7-strings  but for those who don't have one here it is. 

-|----------------------------------------------------------|-----------------
-|----------------------------------------------------------|-----------------
-|----------------------------------------------------------|-----------------
-|--------------------------------------------------------x2|-----------------
-|-3/5-5-5-6-6-6-3/5-5-5-6-6-6-3/5-5-5-6-5-5/1-1-1-5-3-3----|-----------------
-|----------------------------------------------------------|-----------------
           Intro:

-|-----------------|-----------------------|-----------------|----------------
-|-----------------|-----------------------|-----------------|----------------
-|-----------------|----------10101010-----|-----------------|----------------
-|--------------x4-|----------x-x-x-x---x3-|-----------------|----------------
-|-0-xx0---0000----|-0-xx0-xx-8-8-8-8------|--3/5/6/8/9/10---|----------------
-|-0-xx0---0000----|-0-xx0-xx--------------|--3/5/6/8/9/10---|----------------
  pm       ....    Verse:                 Fill^ Slide up slowly

-|---------------------------------------|--------------------------|---------
-|---------------------------------------|--------------------------|---------
-|---------------------------------------|--------------------------|---------
-|---------------------------------------|--------------------------|---------
-|-10-xxx10-xxx10-\-3-xxx8-xx-5/6\5---x3-|-10-xxx10-xxx10-9\8\6\5\3-|---------
-|-10-xxx10-xxx10-\-3-xxx8-xx-5/6\5------|-10-xxx10-xxx10-9\8\6\5\3-|---------
      Chorus:                                     slow slides^    ^let ring

-|-----------------|---------------------|--------------|-------------------|-
-|-----------------|---------------------|--------------|-------------------|-
-|-----------------|----------10101010---|--------------|---------10101010--|-
-|--------------x4-|----------x-x-x-x-x3-|--------------|---------x-x-x-x-x3|-
-|-0-xx0---0000----|-0-xx0-xx-8-8-8-8----|-3/5/6/8/9/10-|0-xx0-xx-8-8-8-8---|-
-|-0-xx0---0000----|-0-xx0-xx------------|-3/5/6/8/9/10-|0-xx0-xx-----------|-
   pm      ....   Verse:
[ Tab from: http://www.guitartabs.cc/tabs/m/mushroomhead/sun_doesnt_rise_tab_ver_2.html ]
-|--------------|-------------------------------------|-----------------------
-|--------------|-------------------------------------|-----------------------
-|--------------|-------------------------------------|-----------------------
-|--------------|----------------------------------x3-|-----------------------
-|-3/5/6/8/9/10-|-10-xxx10-xxx10-\-3-xxx8-xx-5/6\5----|-10-xxx10-xxx10-9\8\6\-
-|-3/5/6/8/9/10-|-10-xxx10-xxx10-\-3-xxx8-xx-5/6\5----|-10-xxx10-xxx10-9\8\6\-
                            Chorus:                           Slowly Slide^

-|-------|-------------------------------------------------------------|------
-|-------|-------------------------------------------------------------|------
-|-------|-------------------------------------------------------------|------
-|-------|-------------------------------------------------------------|------
-|-5\3\0-|-----3/5-5-5-6-6-6-3/5-5-5-6-6-6-3/5-5-5-6-6-6-3/5-5-5-6-6-6-|------
-|-5\3\0-|-------------------------------------------------------------|------
       ^ let ring                 Bridge: soft part after chorus

-|-------------------------|--------------------------------------------------
-|-------------------------|--------------------------------------------------
-|-------------------------|--------------------------------------------------
-|-------------------------|--------------------------------------------------
-|-3/5-5-5-6-5-5\1-1-1-5-3-|-3/5-5-5-6-6-6-3/5-5-5-6-6-6-3/5-5-5-6-6-6-3/5-5--
-|-------------------------|--------------------------------------------------
                                Played during J Mann's Wisper

-|-------------------|---------------------|-------|--------------------------
-|-------------------|---------------------|-------|--------------------------
-|-------------------|--------7/8\7/8\7----|-------|--------------------------
-|-------------------|--------x/x\x/x\x--x3|-------|--------------------------
-|-5-6-5-5/1-1-1-5-3-|-0-xx0--5/6\5/6\5----|-0-xx0-|--------------------------
-|-------------------|-0-xx0---------------|-0-xx0-|--------------------------
                                  Verse:         ^Kill note after stroke      

-|--------------------------------------|--------------------------|----------
-|--------------------------------------|--------------------------|----------
-|--------------------------------------|--------------------------|----------
-|-----------------------------------x3-|--------------------------|----------
-|-10-xxx10-xxx10-\-3-xxx8-xx-5/6\5-----|-10-xxx10-xxx10--9\8\6\5\3|----------
-|-10-xxx10-xxx10-\-3-xxx8-xx-5/6\5-----|-10-xxx10-xxx10--9\8\6\5\3|----------


-|----------------------|--------------------|--------------|-----------------
-|----------------------|--------------------|--------------|-----------------
-|----------------------|--------------------|--------------|-----------------
-|-------------------x4-|-----------------x3-|--------------|-----------------
-|-000-x000--xx0000-----|-000-x000-0-0-0-----|-000--x-0-0---|-----------------
-|-000-x000--xx0000-----|-000-x000-0-0-0-----|-000--x-0-0---|-----------------
 pm..   ...    ...        ..   ..  . . .       ...
Comments