Mushroomhead - Solitaire Unraveling Chords & Tabs

 

Solitaire Unraveling Chords & Tabs

Mushroomhead Chords & Tabs

Version: 2 Type: Tab 0 ratings
1 star 2 stars 3 stars 4 stars 5 stars
comments

Solitaire Unraveling Tab

Tuning: Drop D  (DADGBE)

Intro/Verse:
This is the keyboard you hear in the song. 

Keys:	                   
E|---3-------------------|---3-----------------------------
B|-3----1-3----1---------|-3----1-3--3-4-------------------
G|-----------3----0-0-0--|----------------2-0-0------------
D|-----------------------|---------------------------------
A|-----play 3x then------|---------------------------------
D|-----------------------|---------------------------------

Guitar:
E|---------------|------------|---------------|------------
B|---------------|-3/15-------|---------------|------------
G|---------------|------------|---------------|------------
D|-5--5--5--5/0--|------------|-x-x--x-x--x-x-|------------
A|-5--5--5--5/0--|------------|-x-x--x-x--x-x-|-12/0-------
D|-5--5--5--5/0--|------------|-x-x--x-x--x-x-|------------

Chorus:
E|---------------------------------------------------------
B|---------------------------------------------------------
G|-----------7-----------7---------------------------------
D|-----8-----5-----8-----5-------8-------------------------
A|--5--6--5-----5--6--5-----5----6-------------------------
D|--5-----5-----5-----5-----5------------------------------
[ Tab from: http://www.guitartabs.cc/tabs/m/mushroomhead/solitaire_unraveling_tab_ver_2.html ]
Bridge:
E|---------------------------------------------------------
B|---------------------------------------------------------
G|-4--6----4--6---keep with those--------------------------
D|-4--6----4--6---chords-----------------------------------
A|-2--4----2--4--------------------------------------------
D|---------------------------------------------------------

Bridge part 2: 
E|---------------------------------------------------------
B|---------------------------------------------------------
G|-2---3---let each one------------------------------------
D|-2---3---ring out----------------------------------------
A|-0---1---------------------------------------------------
D|---------------------------------------------------------

Bridge part 3:
E|-2-----3-------5-6-----2---------------------------------
B|---3------3--------3-------------------------------------
G|-----2------2--------2-----------------------------------
D|---------------------------------------------------------
A|---------------------------------------------------------
D|---------------------------------------------------------

Bridge part 4: (J. Mann sings All of your so called resolve)
Play Bridge part 1

This is the first song ive tabbed i hope its good.
Any questions or comments, email me at M116rs@aol.com
Comments