Mushroomhead - One More Day Chords & Tabs

 

One More Day Chords & Tabs

Mushroomhead Chords & Tabs

Version: 2 Type: Tab 0 ratings
1 star 2 stars 3 stars 4 stars 5 stars
comments

One More Day Tab

Song: One More Day from Mushroomhead
Tuning: 7 string standard dropped (AEADGBe)7 string isn't needed.

Verse(slight PM on notes, except the ringing 2 cord, play these at the begining of the 
four 4 counts)
----|     -----------|
----|     -----------|
----|     -----------|
----|     -----------|
-22-|(x2  -2~-22-----|
-22-|     -2~-22-----|
-22-|     -2~-22-----|

Chorus(each note rings for a 1 count)
---------------|
---------------|
---------------|
---------------| riff x2
-2~-4~-5~-4~---|
-2~-4~-5~-4~---|
-2~-4~-5~-4~---|

-play Verse

Chorus(play riff x7)
[ Tab from: http://www.guitartabs.cc/tabs/m/mushroomhead/one_more_day_tab_ver_2.html ]
Interlude 1(play this riff once, all notes ring for a 1 count, except the last rings for 
4 count)
--------------------|
--------------------|
--------------------|
-9~-11~-12~-11~-5~~-|
-9~-11~-12~-11~-5~~-|
-7~--9~-10~--9~-3~~-|
--------------------|
and if you have 2 guitars, the 2nd guitar plays this with the same timing:
----------------|
----------------|
----------------|
----------------|
-2~-4~-5~-4~-2~-|
-2~-4~-5~-4~-2~-|
-2~-4~-5~-4~-2~-|
Interlude 2(play witht he same timign as the last riff)
----------------|
----------------|
-------------5~-|
-------------5~-|
-2~-4~-5~-7~-3~-|
-2~-4~-5~-7~----|
-2~-4~-5~-7~----|

-play Verse

-play Chorus (riff x8)

End on:
---------------|
---------------|
---------------|
---------------|
-2~------------|
-2~------------|
-2~------------|
Comments