Mushroomhead - Nowhere To Go Chords & Tabs

 

Nowhere To Go Chords & Tabs

Mushroomhead Chords & Tabs

Version: 1 Type: Bass Tab

Nowhere To Go Bass Tab

   
Mushroomhead-XIII-04 Nowher To Go

Intro

F---------------------------------------------------------------------|
C---------------------------------------------------------------------|
G---------------------------------------------------------------------|
D---------------------------------------------------------------------|
A-8--8-8-8--8-8-8--8-8-8--8-8--4--4-4-4--4-4-4--4-4-4---4-4--6--6-6-6-|

F--------------------------------------------------------------------|
C--------------------------------------------------------------------|
G-------------------------------------10r----------------------------|
D--------------------------------------------------------------------|
A-6-6-6--6-6-6--6-6--8-8-8--8-8--8-8--8r-----------------------------|

Morning's Gone

F-8-------10------12--------------------------------------------------|   X2
C-8-------10------12--------------------------------------------------|
G-6-------8-------10--------------------------------------------------|
D---------------------------------------------------------------------|
A---------------------------------------------------------------------|

Chorus X2 One By One Till We Are All Alone

F---------------------------------------------------------------------|
C---------------------------------------------------------------------|
G---------------------------------------------------------------------|
D---------------------------------------------------------------------|
A-8--8-8-8--8-8-8--8-8-8--8-8--4--4-4-4--4-4-4--4-4-4---4-4--6--6-6-6-|

F--------------------------------------------------------------------|
C--------------------------------------------------------------------|
G-------------------------------------10r----------------------------|
D--------------------------------------------------------------------|
A-6-6-6--6-6-6--6-6--8-8-8--8-8--8-8--8r-----------------------------|

Ringing Doubt

[ Tab from: http://www.guitartabs.cc/tabs/m/mushroomhead/nowhere_to_go_btab.html ]
F-8-------10------12-------|--8----10-----------------------------------|
D-8-------10------12-------|--8----10-----------------------------------|
G-6-------8-------10---0--|--6----8----88888888-------------------------|
D--------------------------|--------------------------------------------|
A--------------------------|--------------------------------------------|

Chorus X2

Bridge
F---------------------------------------------------------------------|
C---------------------------------------------------------------------|
G---------------------------------------------------------------------|
D---------------------------------------------------------------------|
A-888-88-88-88-444-44-44-44-666-66-66-66-88888888-88888888------------|

If I Could End This Waking Dream
X2
F---------------------------------------------------------------------|
C---------------------------------------------------------------------|
G-10-10-10-10-10-10-10-10-10-10-10-10-10-10-10-10-6-6-6-6-6-6-6-6-6-6-|
D---------------------------------------------------------------------|
A---------------------------------------------------------------------|
               first                             second
F-------------|--------------------------------|-------------10---------|
C-------------|--------------------------------|-------------10---------|
G-6-6-6-6-6-6-|8-8-8-8-8-8-8-8-8-8-8-8-8-8-8-8-|-8-8-8-8-8-8-8----------|
D-------------|--------------------------------|------------------------|
A-------------|--------------------------------|------------------------|

All Alone...More Than You Know

F-8---10---------------------------------------------------------------|
C-8---10---------------------------------------------------------------|
G-6---8----8-8-8-8-8-8-8-8---------------------------------------------|
D----------------------------------------------------------------------|
A----------------------------------------------------------------------|

Chorus X2

Last Chorus

F---------------------------------------------------|-----------------------|
C---------------------------------------------------|-----------------------|
G---------------------------------------------------|---------------10------|
D---------------------------------------------------|-----------------------|
A-8888888888888888-4444444444444444-666666666666666-|-6-6-6-6-6-6-8---------|

End