Mushroomhead - Kill Tomorrow Chords & Tabs

 

Kill Tomorrow Chords & Tabs

Mushroomhead Chords & Tabs

Version: 1 Type: Bass Tab

Kill Tomorrow Bass Tab

Band- Mushroomhead
Song- Kill Tomorrow

KEY

~ - hold note
/ - slide up to next note

INTRO
G||----------------------------------------------||
D||----------------------------------------------||
A||----------------------------------------------||
E||-5---5---5---5---/7~---5---5---5------0-1-0---||
B||---0---0---0---0--0~-----0---0---0--3-------3-||

VERSE                 /BREAK      /2ND HALF
G||------------------|-----------|-------------------------||
D||------------------|-----------|-------------------------||
A||------------------|-----------|-------------------------||
E||------------------|---0-1-0---|-------------------------||
B||-0000000000000000-|-3-------3-|-00000-00000-00000-00000-||
[ Tab from: http://www.guitartabs.cc/tabs/m/mushroomhead/kill_tomorrow_btab.html ]
CHORUS
G||---------------------------------------------------||
D||---------------------------------------------------||
A||-----0-5-7~-----------5-7~--------0-5-7~--------7~-||
E||-7-7------------5-5-0---------7-7-----------3~--0~-||
B||---------------------------------------------------||

BRIDGE
G||-----------------------------|--------------------------||
D||-----------------------------|--------------------------||
A||-----------------------------|--------------------------||
E||-1-0-4-3--------1-0-4-3------|-5---7-5---7-5---7-5---7~-||
B||----------0-0-0---------0000-|---0-----0-----0-----0-0~-||

POST BRIDGE
G||-------------------------------------------------------------------||
D||-------------------------------------------------------------------||
A||-------------------------------------------------------------------||
E||-5---5---5-----0-1-0----5---5---5---5---/7~--5---5---5-----0-1-0---||
B||---0---0---0-3-------3----0---0---0---0--0~----0---0---0-3-------3-||