Muse - Uno Chords & Tabs

 

Uno Chords & Tabs

Muse Chords & Tabs

Version: 3 Type: Tab 0 ratings
1 star 2 stars 3 stars 4 stars 5 stars
comments

Uno Tab

Title:	Uno
Album:	Showbiz
Artist:	Muse
Tabbed by: Gary666

**This is all my own work**

Note: For the solo, to get that low note (marked *) you need one of those 
thingos that you put into your guitar to bend the strings.  Got that?  Good.

Intro
|------------------------------|------------------------------|
|-8-7-7-8-7-7-8--8-7-7-8-7-7-8-|-8-7-7-8-7-7-8--8-7-7-8-7-7-8-|
|-9-9-9-9-9-9-9--9-9-9-9-9-9-9-|-9-9-9-9-9-9-9--9-9-9-9-9-9-9-|
|------------------------------|------------------------------|
|------------------------------|------------------------------|
|------------------------------|------------------------------|


|------------------------------|---------------------------------|
|-8-7-7-8-7-7-8--8-7-7-8-7-7-8-|8-7-7-8-7-7-8--8-7-7-8-8888101010|
|-8-8-8-8-8-8-8--9-9-9-9-9-9-9-|9-9-9-9-9-9-9--9-9-9-9-----------|
|------------------------------|---------------------------------|
|------------------------------|---------------------------------|
|------------------------------|---------------------------------|


|-------------------------------------------------------|
|-11-11-10---11-11-10---11--11-11-10---11-11-10---11-11-|
|----------9----------9--------------9----------9-------|
|-------------------------------------------------------|
|-------------------------------------------------------|
|-------------------------------------------------------|


|-------------------------------------------------------|
|-11-11-10---11-11-10---11--11-11-10---11-11-10---11-11-|
|----------9----------9--------------9----------9-------|
|-------------------------------------------------------|
|-------------------------------------------------------|
|-------------------------------------------------------|


|-------------------------------------------------------|
|-11-11-10---11-11-10---11--11-11-10---11-11-10---11-10-|
|----------8----------8--------------9----------9-------|
|-------------------------------------------------------|
|-------------------------------------------------------|
|-------------------------------------------------------|


|-------------------------------------------------------|
|-------------------------------------------------------|
|-------------------------------------------------------|
|-------------------------------------------------------|
|-7-----------------------------------------------------|
|-7-----------------------------------------------------|


Verse
|-0-------------|-0-------------|-2-------------|-0-------------|
|-0-------------|-1-------------|-0-------------|-0-------------|
|-0-------------|-2-------------|-2-------------|-0-------------|
|-2-------------|-2-------------|-1-------------|-2-------------|
|-2-------------|-0-------------|-2-------------|-2-------------|
|-0-------------|---------------|---------------|-0-------------|


|---------------|---------------|---------------|---------------|
|-----0-0---0-0-|-----1-1---1-1-|-----0-0---1-1-|-----0-0-------|
|-----0-0---0-0-|-----2-2---2-2-|-----2-2---2-2-|-----0-0-------|
|---------------|---------------|---------------|---------------|
|---------------|---------------|---------------|---------------|
|---------------|---------------|---------------|---------------|


Chorus
|------------------------|------------------------|
|-5-5--5-7-5--5-5--5-7-5-|-5-5--5-7-5--5-5--5-7-5-|
|------------------------|------------------------|
|------------------------|------------------------|
|------------------------|------------------------|
|------------------------|------------------------|


|------------------------|-0----------------------|
|-4-4--4-4-4--1-1--1-1-0-|-0----------------------|
|------------------------|------------------------|
|------------------------|------------------------|
|------------------------|--------------------4-3-|
|------------------------|------------------------|
[ Tab from: http://www.guitartabs.cc/tabs/m/muse/uno_tab_ver_3.html ]
Solo
|---------------|---------------|---------------|---------0-----|
|---------------|---------------|---------------|---------0-----|
|---------------|---------------|---------------|---------0-----|
|---------------|---------------|---------------|---------2-----|
|2-2---2--------|------------4-3|2-2-2-------4-3|-2-------2-----|
|----3---0-2-3-2|2-0-0r*b0------|---2-0-2-3-0---|---------------|


|-0-------------|-0-------------|-2-------------|-0-------------|
|-0-------------|-1-------------|-0-------------|-0-------------|
|-0-------------|-2-------------|-2-------------|-0--------6-6-5|
|-2-------------|-2-------------|-1-------------|-2-------------|
|-2-------------|-0-------------|-2-------------|-2-------------|
|-0-------------|---------------|---------------|-0-------------|


|---------------|---------------|---------------|---------------|
|-----0-0---0-0-|-----1-1---1-1-|-----0-0---1-1-|-----0-0-------|
|-----0-0---0-0-|-----2-2---2-2-|-----2-2---2-2-|-----0-0-------|
|---------------|---------------|---------------|---------------|
|---------------|---------------|---------------|---------------|
|---------------|---------------|---------------|---------------|
|                                                               |
|Guitar 2                                                       |
|---------------|---------------|---------------|---------------|
|---------------|---------------|---------------|---------------|
|-4-4-0-4-------|----------6-6-5|-4-4---4----6-5|-4-------------|
|---------------|---------------|-----4---------|---------------|
|---------------|---------------|---------------|---------------|
|---------------|---------------|---------------|---------------|


Chorus
|------------------------|------------------------|
|-5-5--5-7-5--5-5--5-7-5-|-5-5--5-7-5--5-5--5-7-5-|
|------------------------|------------------------|
|------------------------|------------------------|
|------------------------|------------------------|
|------------------------|------------------------|


|------------------------|-0----------------------|
|-4-4--4-4-4--1-1--1-1-0-|------------------------|
|------------------------|------------------------|
|------------------------|------------------------|
|------------------------|------------------2-0---|
|------------------------|----------------------3-|


|--------0---------------0------|--------0---------------0------|
|----0-----0---0-----0-----0---0|----1-----1---1-----1-----1---1|
|--0---0-----0-----0---0-----0--|--2---2-----2-----2---2-----2--|
|-------------------------------|-------------------------------|
|-------------------------------|0---------------0--------------|
|0---------------0--------------|-------------------------------|


|--------2---2-----------0---0--|--------0---0------------------|
|----0-----0---0-----1-----1---1|----0-----0---0-/11-/11-/11-/11|
|--2---2-----------2---2--------|--0---0------------------------|
|-------------------------------|-------------------------------|
|2---------------0--------------|-------------------------------|
|-------------------------------|0------------------------------|


|-------------------------------------------------------|
|-11-11-10---11-11-10---11--11-11-10---11-11-10---11-11-|
|----------9----------9--------------9----------9-------|
|-------------------------------------------------------|
|-------------------------------------------------------|
|-------------------------------------------------------|


|-------------------------------------------------------|
|-11-11-10---11-11-10---11--11-11-10---11-11-10---11-11-|
|----------9----------9--------------9----------9-------|
|-------------------------------------------------------|
|-------------------------------------------------------|
|-------------------------------------------------------|


|-------------------------------------------------------|
|-11-11-10---11-11-10---11--11-11-10---11-11-10---11-10-|
|----------8----------8--------------9----------9-------|
|-------------------------------------------------------|
|-------------------------------------------------------|
|-------------------------------------------------------|


|-------------------------------------------------------|
|-------------------------------------------------------|
|-------------------------------------------------------|
|-------------------------------------------------------|
|-7-----------------------------------------------------|
|-7-----------------------------------------------------|
Comments