Muse - Uno Chords & Tabs

 

Uno Chords & Tabs

Muse Chords & Tabs

Version: 2 Type: Tab 0 ratings
1 star 2 stars 3 stars 4 stars 5 stars
comments

Uno Tab

   
BAND   : MUSE UK
ALBUM  : SHOWBIZ
SONG   : UNO
TABBED : Gabriel Romero 

GUITAR TAB

If you  need  help with  some tabs  only  send me an e-mail and
I'll try to help you. Any comments and suggestions are received
to this mail 

STANDAR TUNNING
eBGDAE

INTRO:

e------------
B------------
G-0X--0X--0--  THE TIMES YOU FIND IT NECESSARY
D-0X--0X--0--
A-0X--0X--0--
E-0X--0X--0--

THEN:

B--8-7-7-8-7-7-8--8-7-7-8-7-7-8--8-7-7-8-7-7-8--8-7-7-8-7-7-8--
G--9-9-9-9-9-9-9--9-9-9-9-9-9-9--5-5-5-5-5-5-5--5-5-5-5-5-5-5--

B--8-7-7-8-7-7-8--8-7-7-8-7-7-8--8-7-7-8-7-7-8--8-7-7-8-7-7-8--
G--8-8-8-8-8-8-8--8-8-8-8-8-8-8--9-9-9-9-9-9-9--9-9-9-9-9-9-9--

B--7-7-7-7-7-7--
G--9-9-9-9-9-9--

NEXT FOUR PART NEEDS TREMOLO PICKING

B--11-10-10-11-10-10-11--11-10-10-11-10-10-11--11-10-10-11-10-10-11--
G--12-12-12-12-12-12-12--12-12-12-12-12-12-12---9--9--9--9--9--9--9--

B--11-10-10-11-10-10-11--11-10-10-11-10-10-11--11-10-10-11-10-10-11--
G---9--9--9--9--9--9--9--11-11-11-11-11-11-11--11-11-11-11-11-11-11--

G-0X-
D-0X-
A-0X-

VERSE:

-The chords above the lyrics are strummed slow and only once

Em 022000
Am 002212
B7 021202
           Em
This means nothing to me
               Am
'Cause you are nothing to me
             B7
And it means nothing to me
              Em
That you blew this away

AND FOR THE NEXT PART

e--7-X--7----X--7-X--7----X--   Em X79987 or X X X 12 12 12
B--8-X--8----X--8-X--8----X--   Am 577555 or X X X 14 13 12
G--9-X--9----X--9-X--9----X--   B7 797877 or X X X 14 12 14
D--9-X--9----X--9-X--9----X--
A----------------------------
E----------------------------   and so on for each chord

'Cause you could have been number one
If you only found the time
And you could have ruled the whole world
If you had the chance

CHORUS:

ALL WITH TREMOLO PICKING

B--8-8-8--7-7-7--7-7-7--8-8-8--  THIS FOUR CHORDS ARE THE CHORUS, PLAY EACH 
G--9-9-9--5-5-5--8-8-8--9-9-9--  ONE AS NECESSARY
[ Tab from: http://www.guitartabs.cc/tabs/m/muse/uno_tab_ver_2.html ]
You could have been number one
And you could have ruled the whole world
And we could have had so much fun
But you blew it away

BRIDGE:

e-----------------------------------------------------------------0----
B-----------------------------------------------------------------0----
G-----------------------------------------------------------------0----
D-----------------------------------------------------------------2----
A--4--3--2-2---2--------------------4--3--2-2---2---------4--3-2--2----
E------------3----0h2-3-2-2--0-0@-------------3---0h2-3-0---------0----

WERE THE @ IS YOU NEED TO USE THE TREMOLO BAR

VERSE 2: 
 THE SAME SOFT STRUMMING
             Em
You're still nothing to me
            Am
And this is nothing to me
              B7
And you don't know what you've done
                    Em
But I'll give you a clue
  
  AND FOR NEXT PART

 THIS PART GO WITH LYRICS
B-18-18-17-16-16----16-- 
G----------------17-----
You could have been number one
e-----------------------------17--
B---------------------------18----
G-------------------------19------      
If you only had the chance  
B-18-18-17-16-16----16-- 
G----------------17-----              
And you could have ruled the whole world 
B--------15-14-----
G--------------16-- 
If you had the time                       

CHORUS:

ALL WITH TREMOLO PICKING

B--8-8-8--7-7-7--7-7-7--8-8-8--  THIS FOUR CHORDS ARE THE CHORUS, PLAY EACH 
G--9-9-9--5-5-5--8-8-8--9-9-9--  ONE AS NECESSARY


You could have been number one
And you could have ruled the whole world
And we could have had so much fun
But you blew it away

You could have been number one
And you could have ruled the whole world
And we could have had so much fun
But you blew it away 

OUTRO:


NEXT FOUR PART NEEDS TREMOLO PICKING

B--11-10-10-11-10-10-11--11-10-10-11-10-10-11--11-10-10-11-10-10-11--
G--12-12-12-12-12-12-12--12-12-12-12-12-12-12---9--9--9--9--9--9--9--

B--11-10-10-11-10-10-11--11-10-10-11-10-10-11--11-10-10-11-10-10-11--
G---9--9--9--9--9--9--9--11-11-11-11-11-11-11--11-11-11-11-11-11-11--

If you  need  help with  some tabs  only  send me an e-mail and
I'll try to help you. Any comments and suggestions are received
to this mail 
Comments