Muse - Uno Chords & Tabs

 

Uno Chords & Tabs

Muse Chords & Tabs

Version: 1 Type: Tab 1 rating
1 star 2 stars 3 stars 4 stars 5 stars
comments

Uno Tab

yo
this is uno, 1 of the bestsongs of showbiz

intro

------------------------
------------------------
------------------------
------------------------
------------------------
x-x-x---x---x---xx--xxx-
pick scrapes

-------------------               --------------------
8-7-7-8-7-7-8-7-7-8               10-10-11-10-10-11-10
9-9-9-9-9-9-9-9-9-9               -9-9--9--9--9--9--9
-------------------      x 4      -------------------
-------------------               --------------------- 
-------------------               --------------------
[ Tab from: http://www.guitartabs.cc/tabs/m/muse/uno_tab.html ]
verse
0------------0--------2--------0
0------------1--------0--------0
0------------2--------2--------0
4------------2--------1--------4
2------------0--------2--------2
0------------------------------0

chorus

(full on distortion!)
0-0-0-0-0-0-0-0-0-5-5-5-5-5-5-5-5-7-7-7-7-5-5-5-5-0-0-0-0-0-0-0-0-0
0-0-0-0-0-0-0-0-0-5-5-5-5-5-5-5-5-7-7-7-7-5-5-5-5-0-0-0-0-0-0-0-0-0
0-0-0-0-0-0-0-0-0-6-6-6-6-6-6-6-6-8-8-8-8-6-6-6-6-0-0-0-0-0-0-0-0-0
2-2-2-2-2-2-2-2-2-7-7-7-7-7-7-7-7-7-7-7-7-7-7-7-7-2-2-2-2-2-22-22-2
2-2-2-2-2-2-2-2-2-7-7-7-7-7-7-7-7-9-9-9-9-7-7-7-7-2-2-2-2-2-2-2-2-2
0-0-0-0-0-0-0-0-0-5-5-5-5-5-5-5-5-7-7-7-7-5-5-5-5-0-0-0-0-0-0-0-0-0


just repeat verse an chorus and last part of intro

if u want any more muse mail me @
tom444@nme.com
Comments