Muse - Unintended Chords & Tabs

 

Unintended Chords & Tabs

Muse Chords & Tabs

Version: 6 Type: Tab 0 ratings
1 star 2 stars 3 stars 4 stars 5 stars
comments

Unintended Tab

   
#----------------------------------PLEASE NOTE--------------------------------#
#This file is the author's own work and represents their interpretation of the#
#song. You may only use this file for private study, scholarship, or research.#
#-----------------------------------------------------------------------------#
#-- File created with Instab - http://www.pconline.com/~smcarey/instab.html --#
#-----------------------------------------------------------------------------#

Author/Artist: Muse
Title: Unintended
Album: Showbiz
Transcribed by: Andrew Biles

This is the tab book version and there wasn't a complete tab of this, which I
felt was a shame so I just typed it all out.  Chord names are written below tab
to help with fingering.  Enjoy

Intro
-----0-------------------------------0--------------------------2-------------
-----0---------------2-1-0-------0---0----------2-1-0-------0-----0-----------
-----1----1--------1-------2-0h1--------------1-------2-------2-----2---2-----
---2----2--------2-----------------2--------2-------------1-----------1-------
-------------0h2------------------------0h2-------------2-----------------2---
-0---------------------------0------------------------------------------------
 E                                                      B7       

                Verse 
-------2-------|---------0---------------0---------------2---------------3----
---0-----0-----|-----0-----0---------1-----1---------3-----3---------3-----3--
-----2-----2---|-------1-----1---------2-----2-----2---2-----2---------0------
-1-----------1-|---2-----------2---2-----------2-0-------------0---0----------
---------------|-----------------0--------------------------------------------
---------------|-0-----------------------------------------------3------------
                 E               Am              D               G5     

-------------0-----------------2-----------------0---------------0------------
---------1-----1-----------0-----0-----------0-----0---------0-----0----------
-0---------0-----0---0-------2-----2---2-------1-----1---------1-----1--------
---0---2-----------2-----1-----------1-----2-----------2---2-----------2---2--
-----3-----------------2------------------------------------------------------
-----------------------------------------0---------------0---------------0----
     C                 B7                E                            

-----0---------------0---------------2---------------3---------------0--------
-0-----0---------1-----1---------3-----3---------3-----3---------1-----1------
---1-----1---------2-----2-----2---2-----2---------0-----0---------0-----0----
-----------2---2-----------2-0-------------0---0-----------0---2-----------2--
-------------0-----------------------------------------------3----------------
---------------------------------------------3--------------------------------
             Am              D               G5              C      

                                                          Chorus
-----------2-------------------0-----------------0-------|---------0----------
-------0-----0-------------0-----0-----------0-----0-----|-----0-----0--------
-0-------2-----2---2-----1---1-----1---1-------1-----1---|-------1-----1------
-----1-----------1-----2-------------2-----2-----------2-|---2-----------2----
---2-----------------------------------------------------|-----------------0--
---------------------0-------------------0---------------|-0------------------
   B7                E                                          

-------0---------------2---------------3---------------0-----------------2----
---1-----1---------3-----3---------3-----3---------1-----1-----------0-----0--
-----2-----2-----2---2-----2---------0-----0---------0-----0---0-------2------
-2-----------2-0-------------0---0-----------0---2-----------2-----1----------
-----------------------------------------------3-----------------2------------
-------------------------------3----------------------------------------------
 Am            D               G5              C                 B7 
[ Tab from: http://www.guitartabs.cc/tabs/m/muse/unintended_tab_ver_6.html ]
---------------0---------------0-------|--------------------------------------
-----------0-----0---------------0-----|--------------------------------------
-2---2-------1-----1-------0-------1---|--------------------------------------
---1-----2-----------2---2---1-------2-|--------------------------------------
---------------------------------------|--------------------------------------
-------0---------------0---------------|--------------------------------------
       E                                 back to verse.  at the end of verse, 

------------------------------------|---------0-----------------------2-------
------------------------------------|-----0-----0---------0-------------0-----
------------------------------------|-------1-----1---0-----------2-------2---
------------------------------------|---2-----------2---2---2---1---1---------
------------------------------------|-2-----------------------2---------------
------------------------------------|-----------------------------------------
 play the last two E chords like...   E               Em      B7              

---|---------0---------------0---------------2---------------3----------------
---|-----0-----0---------1-----1---------3-----3---------3-----3---------1----
---|-------1-----1---------2-----2-----2---2-----2---------0-----0---------0--
-1-|---2-----------2---2-----------2-0-------------0---0-----------0---2------
---|-----------------0-----------------------------------------------3--------
---|-0-----------------------------------------------3------------------------
     E               Am              D               G5              C        

-0-----------------2-----------------0---------------0---------------0--------
---1-----------0-----0-----------0-----0---------0-----0---------0-----0------
-----0---0-------2-----2---2-------1-----1---------1-----1---------1-----1----
-------2-----1-----------1-----2-----------2---2-----------2---2-----------2--
-----------2------------------------------------------------------------------
-----------------------------0---------------0---------------0----------------
           B7                E                                                

---------0---------------2---------------3---------------0-----------------2--
-----1-----1---------3-----3---------3-----3---------1-----1-----------0------
-------2-----2-----2---2-----2---------0-----0---------0-----0---0-------2----
---2-----------2-0-------------0---0-----------0---2-----------2-----1--------
-0-----------------------------------------------3-----------------2----------
---------------------------------3--------------------------------------------
 Am              D               G5              C                 B7   

-----------------0---------------0---------------0---------------0------------
-0-----------0-----0---------0-----0---------1-----1---------1-----1----------
---2---2-------1-----1---------1-----1---------2-----2---------2-----2--------
-----1-----2-----------2---2-----------2---2-----------2---2-----------2---2--
-----------------------------------------0------------------------------------
---------0---------------0-------------------------------3---------------2----
         E                               Am              Am/G            Am/F#

-----0---------------0---------------0---------------0---------------0--------
-1-----1---------0-----0---------0-----0---------0-----0---------------0------
---2-----2---------------2---------2-----2---------2-----2-------1-------1----
-----------2---2---2-------2---2-----------2---2-----------2---2---2-------2--
------------------------------------------------------------------------------
-------------1---------------0---------------0---------------0----------------
             Fmaj11          Esus4                           E 

------------------------------------------------------------------------------
------------------------------------------------------------------------------
------------------------------------------------------------------------------
------------------------------------------------------------------------------
------------------------------------------------------------------------------
-0----------------------------------------------------------------------------
                                                                             
any questions? andrewbiles@hotmail.com
Comments