Muse - Unintended Chords & Tabs

 

Unintended Chords & Tabs

Muse Chords & Tabs

Version: 4 Type: Tab 1 rating
1 star 2 stars 3 stars 4 stars 5 stars
comments

Unintended Tab







 STALKED- A muse stalkers site 








WWW.MUSE-UNOFFICIAL.COM









Main  
Discography  
Music  
Images  
Links 
Interview 
News 
Guestbook 
Lyrics  
Biography 
Quiz  
Gigs  
Reviews  
Mailing list  
Tits 
muse mail  
Credits  
Search   
Site made by Gini  






 Unintended 




Nylon Guitar:


   1   2   3   4    1   2   3   4    1   2   3   4    1   2   3   4   


E-|----0-----------|----0-----------|--------2-------|--------2-------|
B-|----0-------210-|--0-0-------210-|----0-----0-----|----0-----0-----|
G-|----1--1---1---2|01---------1---2|------2-----2--2|------2-----2---|
D-|--2---2---2-----|---2------2-----|--1-----------1-|--1-----------1-|
A-|--------02------|--------02------|2---------------|2---------------|
E-|0---------------|0---------------|----------------|----------------|



E-|--------0-------|--------0-------|--------2-------|--------3-------|
B-|----0-----0-----|----1-----1-----|----3-----3-----|----3-----3-----|
G-|------1-----1---|------2-----2---|--2---2-----2---|------0-----0---|
D-|--2-----------2-|--2-----------2-|0-------------0-|--0-----------0-|
A-|----------------|0---------------|----------------|----------------|
E-|0---------------|----------------|----------------|3---------------|

E-|--------0-------|--------2-------|--------0-------|--------0-------|
B-|----1-----1-----|----0-----0-----|----0-----0-----|----0-----0-----|
G-|------0-----0--0|------2-----2--2|------1-----1---|------1-----1---|
D-|--2-----------2-|--1-----------1-|--2-----------2-|--2-----------2-|
A-|3---------------|2---------------|----------------|----------------|
E-|----------------|----------------|0---------------|0---------------|

E-|--------0-------|--------0-------|--------2-------|--------3-------|
B-|----0-----0-----|----1-----1-----|----3-----3-----|----3-----3-----|
G-|------1-----1---|------2-----2---|--2---2-----2---|------0-----0---|
D-|--2-----------2-|--2-----------2-|0-------------0-|--0-----------0-|
A-|----------------|0---------------|----------------|----------------|
E-|0---------------|----------------|----------------|3---------------|
[ Tab from: http://www.guitartabs.cc/tabs/m/muse/unintended_tab_ver_4.html ]
E-|--------0-------|--------2-------|--------0-------|--------0-------|
B-|----1-----1-----|----0-----0-----|----0-----0-----|----0-----0-----|
G-|------0-----0--0|------2-----2--2|---1--1-----1--1|------1-----1---|
D-|--2-----------2-|--1-----------1-|--2-----------2-|--2-----------2-|
A-|3---------------|2---------------|----------------|----------------|
E-|----------------|----------------|0---------------|0---------------|


|-->

E-|--------0-------|--------0-------|--------2-------|--------3-------|
B-|----0-----0-----|----1-----1-----|----3-----3-----|----3-----3-----|
G-|------1-----1---|------2-----2---|--2---2-----2---|------0-----0---|
D-|--2-----------2-|--2-----------2-|0-------------0-|--0-----------0-|
A-|----------------|0---------------|----------------|----------------|
E-|0---------------|----------------|----------------|3---------------|

E-|--------0-------|--------2-------|--------0-------|--------0-------|
B-|----1-----1-----|----0-----0-----|----0-----0-----|----0-----0-----|
G-|------0-----0---|------2-----2---|------1-----1---|------1-----1---|
D-|--2-----------2-|--1-----------1-|--2-----------2-|--2-----------2-|
A-|3---------------|2---------------|----------------|----------------|
E-|----------------|----------------|0---------------|0---------------|

                                                           Repeat  

E-|--------0-------|--------0-------|--------2-------|--------3-------|
B-|----0-----0-----|----1-----1-----|----3-----3-----|----3-----3-----|
G-|------1-----1---|------2-----2---|--2---2-----2---|------0-----0---|
D-|--2-----------2-|--2-----------2-|0-------------0-|--0-----------0-|
A-|----------------|0---------------|----------------|----------------|
E-|0---------------|----------------|----------------|3---------------|

E-|--------0-------|--------2-------|--------0-------|--------0-------|
B-|----1-----1-----|----0-----0-----|----0-----0-----|----0-----0-----|
G-|------0-----0---|------2-----2---|------1-----1---|------1-----1---|
D-|--2-----------2-|--1-----------1-|--2-----------2-|--2-----------2-|
A-|3---------------|2---------------|----------------|----------------|
E-|----------------|----------------|0---------------|0---------------|

                                                           Repeat  
Comments