Muse - Unintended Chords & Tabs

 

Unintended Chords & Tabs

Muse Chords & Tabs

Version: 1 Type: Tab 0 ratings
1 star 2 stars 3 stars 4 stars 5 stars
comments

Unintended Tab

   
Artist: Muse
Song: Unintended
Album: Showbiz

This is a version i am going to play in a concert. You have a bass 
playing the root notes, and maybe having an nylon or steel acoustic
or both playing may give it another dynamic.

For the bass play orignal version
For the acoustic play the original song
For the clean electric play an octive up (put a capo on the 12th fret)

Now the way im going to play it is the hard way, there will be a bass
guitar playing the bass notes and i will b playing the original 
version on a clean electric, then halfway through i will add the capo
and play the song an octive up. I also play triplet notes on the 
chords.

 Begining, 
   E
|--------------------------------------------------------0--------|
|------------------------------0---------0-----------0------------|
|------------------------------------------1-----------1----------|
|----------------2----------2---------2-----------2---------------|
|-----------------------------------------------------------------|
|--0---------0----------0---------0------------0------------------|
 
 This is called part 1
   E                       Amin               D
|-----------0------------------------0----------------2-----------|
|------0------0-----------------1------1----------3-----3---------|
|--------1------1-----------------2------2------2---2-----2-------|
|----2------------2--X-3-----2-------------2--0-------------0-----|
|--------------------------0--------------------------------------|
|--0--------------------------------------------------------------|
   G                 C                B7
|-----------3----------------0------------------2-----------------|
|------3------3----------1-----1-----------0------0---------------|
|--------0------0----------0-----0-----------2------2-------------|
|----0------------0----2-----------2----1-------------1-----------|
|--------------------3----------------2---------------------------|
|--3--------------------------------------------------------------|

End of part 1

Repeat that for verses and the chorus and when you have done the 
sequence twice, add the triplets in like this
[ Tab from: http://www.guitartabs.cc/tabs/m/muse/unintended_tab.html ]
            
|-----------0---0---0-------------0---0---0-----------------------|
|------0-----0---0---0-------1-----1---1---1----------------------|
|--------1----1---1------------2----2---2-------------------------|
|---2---------------------2---------------------------------------|
|-----------------------0-----------------------------------------|
|-0---------------------------------------------------------------|

You can do this on any chord and do it when u want to.
Now for the 12 fret part, place the capo on the 12th fret and play
the regular chords and again add triplets at your disposal.

now the structure goes like this

Intro 
The same verses from the original Unintended (with the triplets)
play that for the whole song then after the "Ill be there....."
part have the bass play for a whole section of the verse while
you put your capo on.
Then return and play part one for the rest of the song and 
for the ending play this at the 12th fret then have the bass play
two bars of E then come back and play the same thing with out the 
capo.

Ending
   Amin                Amin/G            Amin/F#
|------------0-------------------0-------------------0------------|
|-------1------1------------1------1------------1------1----------|
|---------2------2------------2------2------------2------2--------|
|----2-------------2------2------------2-----2-------------2------|
|--0--------------------------------------------------------------|
|----------------------3------------------2-----------------------|
   Esus4/F            Esus4                   E
|------------0------------------0---------------------------------|
|-------0------0-----------0------0-------------------------------|
|---------2------2-----------2------2----X-3----------------------|
|-----2------------2-----2------------2---------------------------|
|-----------------------------------------------------------------|
|--1------------------0-----------------------0---let-ring--------|

That be it If you arnt sure of how to play it, email me at
spikez401@msn.com

And if i cant explain to you through writing ask me to send you 
the guitar pro file of the song

Have Fun!
Spikez
Comments