Muse - Time Is Running Out Chords & Tabs

 

Time Is Running Out Chords & Tabs

Muse Chords & Tabs

Version: 8 Type: Tab 0 ratings
1 star 2 stars 3 stars 4 stars 5 stars
comments

Time Is Running Out Tab

   
Guitarist : Matt Bellamy

You should listen to the song for all the timings and strum patterns !!

0:00-0:24
(Fuzz bass intro and verse)

0:24-0:40
Verse

e|-12------11----------12-13-10---|
B|---13-10---13-10-9-12--------12-|
G|--------------------------------|    X2
D|--------------------------------|
A|--------------------------------|
E|--------------------------------|

0:40
Pre-chorus

e|---------------------------------------------------|
B|-0-0-0-1-1-1-1-1--1-1-3-3-1-1-0-0--0-0-0-1-1-1-1-1-|
G|-2-2-2-2-2-2-2-2--0-0-0-0-0-0-0-0--2-2-2-2-2-2-2-2-|
D|-3-3-3-3-3-3-3-3--0-0-0-0-0-0-0-0--2-2-2-2-2-2-2-2-|
A|---------------------------------------------------|
E|---------------------------------------------------|
PM . . . . . . . .  . . . . . . . . (. . . . . . . .

e|-----------------|
B|-1-1-3-3-1-1-0-0-|
G|-0-0-0-0-0-0-0-0-|   X2
D|-2-2-2-2-2-2-2-2-|
A|-----------------|
E|-----------------|
PM . . . . . . . .) (On the 2nd time, there are not palm muted)
0:55
Also, a 2nd guitar comes in (you can play this instead of the last set of chords if you 
only one guitar), playing:

e|----------------------------------------|
B|----------------------------------------|
G|-12-12-10-10-9-9------------------------|
D|--x--x--x--x-x-x------------------------|
A|-10-10--8--8-7-7------------------------|
E|----------------------------------------|
0:57
Chorus


e|-------------------------------------------------|
B|-------------------------------------------------|
G|-9--9--9--9--9--9--9--9--------7--7--9--9--10-10-|
D|-10-10-10-10-10-10-10-10-10-10-10-10-10-10-10-10-|
A|-8--8--8--8--8--8--8--8--10-10-10-10-10-10-10-10-|
E|-8--8--8--8--8--8--8--8--------------------------|

e|-------------------------------------------------|
B|-------------------------------------------------|
G|-6-6-6-6-6-6-6-6---------------------------------|
D|-7-7-7-7-7-7-7-7--10-10-10-10-10-10-10-10--------|
A|-7-7-7-7-7-7-7-7--10-10-10-10-10-10-10-10--------|
E|-5-5-5-5-5-5-5-5--8--8--8--8--8--8--8--8---------|

e|-------------------------------------------------|
B|-------------------------------------------------|
G|-9--9--9--9--9--9--9--9--------7--7--9--9--10-10-|
D|-10-10-10-10-10-10-10-10-10-10-10-10-10-10-10-10-|
A|-8--8--8--8--8--8--8--8--10-10-10-10-10-10-10-10-|
E|-8--8--8--8--8--8--8--8--------------------------|

e|--------------------------------------------------------|
B|--------------------------------------------------------|
G|-6-6-6-6-6-6-6-6----------------------------------------|
D|-7-7-7-7-7-7-7-7----3-3-------5-5-----------------------|
A|-7-7-7-7-7-7-7-7----x-x--3----x-x--5--------------------|
E|-5-5-5-5-5-5-5-5----1-1---1---3-3---3-------------------|
PM                    . .       . .
1:13
Solo type section

e|-12tr\8tr\5tr--11tr\8tr\5tr--4tr/7tr/12tr--13tr\10tr\7tr-|
B|--x---x-x---x---x\x--x---x-x----x---x--x-----------------|
G|--9tr\5tr\2tr---8tr\5tr\2tr--1tr/4tr/9tr---10tr\7tr\-4tr-|
D|---------------------------------------------------------|
A|---------------------------------------------------------|
E|---------------------------------------------------------|
1:21
Verse 2

e|-------------------------------------------------------|
B|-------------------------------------------------------|
G|-------------------------------------------------------|      X3
D|----------------------------3-3-------5-5--------------|
A|-----3-----------------7----x-x--3----x-x--5-----------|
E|-5-5---5--7-7-5-7--0-0---0--1-1----1--3-3----3-3-------|
1:37
(On the 3rd time, the original melody from the first verse comes back, if you have only 
guitar, the bass should do the backing while you do the melody)


e|-12------11----------12-13-10---|
B|---13-10---13-10-9-12--------12-|
G|--------------------------------|
D|--------------------------------|
A|--------------------------------|
E|--------------------------------|
1:45
Pre-chorus 2

e|---------------------------------------------------|
B|-0-0-0-1-1-1-1-1--1-1-3-3-1-1-0-0--0-0-0-1-1-1-1-1-|
G|-2-2-2-2-2-2-2-2--0-0-0-0-0-0-0-0--2-2-2-2-2-2-2-2-|
D|-3-3-3-3-3-3-3-3--0-0-0-0-0-0-0-0--2-2-2-2-2-2-2-2-|
A|---------------------------------------------------|
E|---------------------------------------------------|

e|-----------------|
B|-1-1-3-3-1-1-0-0-|
G|-0-0-0-0-0-0-0-0-|   X2
D|-2-2-2-2-2-2-2-2-|
A|-----------------|
E|-----------------|
(These aren't played palm muted this time, you have to play it with up and down strokes 
there is no set amount of times you hit each one, you have to kind of just scrape the 
like tremolo, listen to the song to see what I mean)
2:00
Again, another guitar plays this:

e|----------------------------------------|
B|----------------------------------------|
G|-12-12-10-10-9-9------------------------|
D|--x--x--x--x-x-x------------------------|
A|-10-10--8--8-7-7------------------------|
E|----------------------------------------|
2:02
Chorus 2
e|-------------------------------------------------|
B|-------------------------------------------------|
G|-9--9--9--9--9--9--9--9--------7--7--9--9--10-10-|
D|-10-10-10-10-10-10-10-10-10-10-10-10-10-10-10-10-|
A|-8--8--8--8--8--8--8--8--10-10-10-10-10-10-10-10-|
E|-8--8--8--8--8--8--8--8--------------------------|
[ Tab from: http://www.guitartabs.cc/tabs/m/muse/time_is_running_out_tab_ver_8.html ]
e|-------------------------------------------------|
B|-------------------------------------------------|
G|-6-6-6-6-6-6-6-6---------------------------------|
D|-7-7-7-7-7-7-7-7--10-10-10-10-10-10-10-10--------|
A|-7-7-7-7-7-7-7-7--10-10-10-10-10-10-10-10--------|
E|-5-5-5-5-5-5-5-5--8--8--8--8--8--8--8--8---------|

e|-------------------------------------------------|
B|-------------------------------------------------|
G|-9--9--9--9--9--9--9--9--------7--7--9--9--10-10-|
D|-10-10-10-10-10-10-10-10-10-10-10-10-10-10-10-10-|
A|-8--8--8--8--8--8--8--8--10-10-10-10-10-10-10-10-|
E|-8--8--8--8--8--8--8--8--------------------------|

e|-------------------------------------------------|
B|-------------------------------------------------|
G|-6-6-6-6-6-6-6-6---------------------------------|
D|-7-7-7-7-7-7-7-7----10-10-10-10-10-10-10-10------|
A|-7-7-7-7-7-7-7-7----10-10-10-10-10-10-10-10------|
E|-5-5-5-5-5-5-5-5----8--8--8--8--8--8--8--8-------|
2:18
Bridge

e|-1-1-1-1-1-1-1-0--0-0-0-0-0-0-0-0-|
B|-3-3-3-3-3-3-3-0--1-1-1-1-1-1-1-0-|
G|-2-2-2-2-2-2-2-0--2-2-2-2-2-2-2-0-|          X3
D|-0-0-0-0-0-0-0-0--2-2-2-2-2-2-2-0-|
A|---------------0--0-0-0-0-0-0-0-0-|
E|---------------0----------------0-|


e|-----0-0-----0-0-----0-0-----0-0--|
B|-----0-0-----0-0-----0-0-----0-0--|
G|-1-1-1-1-1-1-1-1-1-1-1-1-1-1-1-1--|
D|-2-2-2-2-2-2-2-2-2-2-2-2-2-2-2-2--|
A|-2-2-----2-2-----2-2-----2-2------|
E|-0-0-----0-0-----0-0-----0-0------|
2:34
Interlude/Solo

Bass plays intro riff
2:42
Piano solo, for guitar :
e|-12------12------12------11-----11-----11-|
B|---10-13---10-13---10-13---10-13--10-13---|
G|------------------------------------------|
D|------------------------------------------|
A|------------------------------------------|
E|------------------------------------------|
										X2
e|--7-10--7-10--7--8-----8-10--8-10---------|
B|-9-----9-----9----10-12----12-------------|
G|------------------------------------------|
D|------------------------------------------|
A|------------------------------------------|
E|------------------------------------------|
2:50
On the second time, 2nd guitar comes in with:
e|-12------11----------12-13-10---|
B|---13-10---13-10-9-12--------12-|
G|--------------------------------|
D|--------------------------------|
A|--------------------------------|
E|--------------------------------|
(If you only have one guitar, leave this bit out)
2:58
Pre-chorus 3

e|---------------------------------------------------|
B|-0-0-0-1-1-1-1-1--1-1-3-3-1-1-0-0--0-0-0-1-1-1-1-1-|
G|-2-2-2-2-2-2-2-2--0-0-0-0-0-0-0-0--2-2-2-2-2-2-2-2-|
D|-3-3-3-3-3-3-3-3--0-0-0-0-0-0-0-0--2-2-2-2-2-2-2-2-|
A|---------------------------------------------------|
E|---------------------------------------------------|

e|-----------------|
B|-1-1-3-3-1-1-0-0-|
G|-0-0-0-0-0-0-0-0-|   X2
D|-2-2-2-2-2-2-2-2-|
A|-----------------|
E|-----------------|
(Played non palm muted again)
3:13
Again, another guitar plays this:

e|----------------------------------------|
B|----------------------------------------|
G|-12-12-10-10-9-9------------------------|
D|--x--x--x--x-x-x------------------------|
A|-10-10--8--8-7-7------------------------|
E|----------------------------------------|
3:15
Chorus 3
e|-------------------------------------------------|
B|-------------------------------------------------|
G|-9--9--9--9--9--9--9--9--------7--7--9--9--10-10-|
D|-10-10-10-10-10-10-10-10-10-10-10-10-10-10-10-10-|
A|-8--8--8--8--8--8--8--8--10-10-10-10-10-10-10-10-|
E|-8--8--8--8--8--8--8--8--------------------------|

e|-------------------------------------------------|
B|-------------------------------------------------|
G|-6-6-6-6-6-6-6-6---------------------------------|
D|-7-7-7-7-7-7-7-7--10-10-10-10-10-10-10-10--------|
A|-7-7-7-7-7-7-7-7--10-10-10-10-10-10-10-10--------|
E|-5-5-5-5-5-5-5-5--8--8--8--8--8--8--8--8---------|

e|-------------------------------------------------|
B|-------------------------------------------------|
G|-9--9--9--9--9--9--9--9--------7--7--9--9--10-10-|
D|-10-10-10-10-10-10-10-10-10-10-10-10-10-10-10-10-|
A|-8--8--8--8--8--8--8--8--10-10-10-10-10-10-10-10-|
E|-8--8--8--8--8--8--8--8--------------------------|

e|-------------------------------------------------|
B|-------------------------------------------------|
G|-6-6-6-6-6-6-6-6---------------------------------|
D|-7-7-7-7-7-7-7-7----10-10-10-10-10-10-10-10------|
A|-7-7-7-7-7-7-7-7----10-10-10-10-10-10-10-10------|
E|-5-5-5-5-5-5-5-5----8--8--8--8--8--8--8--8-------|
3:31
Bridge

e|-1-1-1-1-1-1-1-0--0-0-0-0-0-0-0-0-|
B|-3-3-3-3-3-3-3-0--1-1-1-1-1-1-1-0-|
G|-2-2-2-2-2-2-2-0--2-2-2-2-2-2-2-0-|          X3
D|-0-0-0-0-0-0-0-0--2-2-2-2-2-2-2-0-|
A|---------------0--0-0-0-0-0-0-0-0-|
E|---------------0----------------0-|


e|-----0-0-----0-0-----0-0-----0-0--|
B|-----0-0-----0-0-----0-0-----0-0--|
G|-1-1-1-1-1-1-1-1-1-1-1-1-1-1-1-1--|
D|-2-2-2-2-2-2-2-2-2-2-2-2-2-2-2-2--|
A|-2-2-----2-2-----2-2-----2-2------|
E|-0-0-----0-0-----0-0-----0-0------|
3:47
Outro

e|--------------------------------------------------|
B|--------------------------------------------------|
G|--------------------------------------------------|
D|-14tr---13tr---12tr---10tr-10\--------------------|
A|-x------x------x------x--x--x---------------------|
E|-12tr---11tr---10tr---8tr---8\--------------------|

If you have two guitars, one of them can play this while the other guitar plays the riff 
which is the bass line:

e|--------------------------------------------------|
B|--------------------------------------------------|
G|--------------------------------------------------|
D|--------------------------------------------------|
A|--------------------------------------------------|
E|-5-5-8-5--5-5-8-5--5-5-8-5--/12\--5-5-8-5---------|
By Berk..send all comments to berk90@wanadoo.nl
Comments