Muse - Time Is Running Out Chords & Tabs

 

Time Is Running Out Chords & Tabs

Muse Chords & Tabs

Version: 6 Type: Tab 0 ratings
1 star 2 stars 3 stars 4 stars 5 stars
comments

Time Is Running Out Tab

   
Brilliant song by muse off their 'absolution'album.I think the
intro is on bass guitar but i converted it to normal guitar. Tell me what you
think at vs_340@hotmail.com

Standard Tuning (E,A,D,g,b,E)

intro/verse

e----------------------------------------|
b----------------------------------------| play once then verse kicks in.
g----------------------------------------|
D----------------------------------------|
A----------------5-7---7--7-----3-----5--|
E-5-8-5-8-5-7-5-7----0--00-0-1-1-1-3-3-3-|

pre-chorus(palm muted)

e----------------------------------------|
b----------------------------------------|
g----------------------------------9-7-5-|
D-33333333555555557777777755555555-------|
A-33333333555555557777777755555555-------|
E-11111111333333335555555533333333-------|

Chorus

e---------------------------------|
b---------------------------------| x2
g-22222222444444446666666688888888
D-33333333555555557777777799999999
A-33333333555555557777777799999999
E-11111111333333335555555577777777

solo

e-----------------------------|
b-----------------------------|
g-9------8----------9-10~-7---|
D---10-7---10-7-6~-9--------9-|
A-----------------------------|
E-----------------------------|

verse

e---------------------------------|
b---------------------------------|       x2
g--------------9------------------|
D-77107-9979-229-3353-5575--------|
A-77107-9979-227-3333-5555--------|
E-558 5-7757-00--11-1-33-3--------|

last bit of verse

e--12----12--------11----11---------10----10-----------------------|
b----13----13--------13----13---------12----12--------13----13-----|
g------14----14--------14----14---------13----13--------12----12---|
D---------------------------------------------------------12----12-|
A------------------------------------------------------------------|
E------------------------------------------------------------------|

pre-chorus

e----------------------------------------|
b----------------------------------------|
g----------------------------------9-7-5-|
D-33333333555555557777777755555555-------|
A-33333333555555557777777755555555-------|
E-11111111333333335555555533333333-------|
[ Tab from: http://www.guitartabs.cc/tabs/m/muse/time_is_running_out_tab_ver_6.html ]
Chorus.....

.....then
"yeah yeah yeah"
e--5----0----7----0---------5----0------------------------|
b--5----0----7----0---------5----0------------------------|
g--7----2----7----2----5----7----2----5-------------------|
D--7----2----7----2----5----7----2----522222222-3353-5555-|
A--5----0----5----0----3----5----0----322222222-3333-5535-|
E--------------------------------------00000000-11-1-33-3-|

Bass solo...then

e--12----12--------11----11---------10----10-----------------------|
b----13----13--------13----13---------12----12--------13----13-----|
g------14----14--------14----14---------13----13--------12----12---|
D---------------------------------------------------------12----12-|
A------------------------------------------------------------------|
E------------------------------------------------------------------|

Pre-chorus

Chorus (including "how did t come to this." bit)
 end solo (play fast)
e----------------------------|
b----------------------------|
g-9-x8-8-x8-7-x8-5-x8/1------|
D----------------------------|
A----------------------------|
E----------------------------|

I think I'm drowning
asphyxiated
I wanna break the spell
that you've created

you're something beautiful
A contradiction
I wanna play the game
I want the friction

you will be
the death of me
yeah, you will be
the death of me

bury it
I won't let you bury it
I won't let you smother it
I won't let you murder it

our time is running out
and our time is running out
you can't push it underground
we can't stop it screaming out

I wanted freedom
but I'm restricted
I tried to give you up
but I'm addicted

now that you know I'm trapped
sense of elation
you'll never dream of breaking this fixation
you will squeeze the life out of me

bury it
I won't let you bury it
I won't let you smother it
I won't let you murder it

our time is running out
and our time is running out
you can't push it underground
we can't stop it screaming out
how did it come to this

you will suck the life out of me

bury it
I won't let you bury it
I won't let you smother it
I won't let you murder it

our time is running out
and our time is running out
you can't push it underground
we can't stop it screaming out

how did it come to this
Comments