Muse - Time Is Running Out Chords & Tabs

 

Time Is Running Out Chords & Tabs

Muse Chords & Tabs

Version: 1 Type: Tab 2 ratings
1 star 2 stars 3 stars 4 stars 5 stars
comments

Time Is Running Out Tab

Time Is Running Out

got tired of seeing the bass intro tabbed out as the guitar line

(bass intro)
|-------------------------------------------------------------------------------------
|-------------------------------------------------------------------------------------
|-------------------------------------5-5h6-----7--------7----------3-----------5-----
|--5-5-8--5-5--8-8---5--7-7-5-7-------------0-0-----0-0----0---1-1-----1/3--3-3-----3-
[ Tab from: http://www.guitartabs.cc/tabs/m/muse/time_is_running_out_tab.html ]
P.M gradual crescendo (pre-chorus)     (chorus)
|---x-------------------------      |---------------------------------
|---1----1-3----1-----1-------	    |---------------------------------
|---2----0-0----2-----0-------	    |--12---10----9-------------------
|---3----0-0----2-----2-------	    |--x-----x----x-------------------
|---x----x-x----0-----3-------      |--10----8----7-------------------
|------------------------------     |---------------------------------
				      “our   time  is…”
|----x----------------x-----------------------------------------
|----x----------------x-------------------------------6---------
|---10---------------10---------7------9----10--------7---------
|---10---------------10--------10-----10---10---------7---------
|---8----------------10--------10-----10---10---------5---------
|---8-----------------------------------------------------------
 “…running out..”	       “our    time   is…”
                 
|----------------------------------------------------------------
|----------------------------------------------------------------
|-------------9--------------8-------------------9---10----------
|--3---5---------10---7---------10---7-------9---------10----7---
|--3---5---------------------------------11----------------------
|--1---3---------------------------------------------------------	   
             [trem pick]	

Verse 2
|------------------------------------------
|---1-1-1-1--------------------------------
|---2-2-2-2----4-4-2-4----0----------------
|---2-2-2-2----4-4-2-4----2----3----3/5----
|---0-0-3-0----2-2-0-2----2----x-3--x/x-5--
|---x-x-x-x---------------0----1----1/3----

(2nd pre-chorus)
|--1----0----0----0--- ring out
|--1----3----1----1---
|--2----0----2----0---
|--3----0----2----2---
|--3----2----0----3---
|--x----3--------------

(bridge)		(piano chords; arpeggiate)
|----0-- [play		|---12----11---10-----8------------
|----0--  bass	        |---13----13---12----10------------
|----1--  intro]	|---14----14---13----10------------
|----2--		|----------------------------------
|----2--		|----------------------------------
|----0--		|----------------------------------

I probably missed a bit but I cant be bothered... so I'll leave my 
email address and you can mail me with any comments or whatever

gibson_sg_red@hotmail.com

Comments