Muse - Time Is Running Out Chords & Tabs

 

Time Is Running Out Chords & Tabs

Muse Chords & Tabs

Version: 4 Type: Bass Tab 0 ratings
1 star 2 stars 3 stars 4 stars 5 stars
comments

Time Is Running Out Bass Tab

 
                              Time is Running Out                               


                             Matthew Bellamy, Chris Wolstemholme, Dominic Howard
Chris (bass)



                                                         
G||--------------------------|--------------------------|
D||--------------------------|--------------------------|
A||--------------------------|-----------------5--5--6--|
E||--5--5--8--5--5--8--8--5--|--7--7--5--7--7-----------|


                                                      
--------------------------|--------------------------|
--------------------------|--------------------------|
--------7--------7--7-----|--------3--------5--5-----|
--0--0-----0--0--------0--|--1--1-----1--3--------3--|


                                                      
--------------------------|--------------------------|
--------------------------|--------------------------|
--------------------------|-----------------5--5--6--|
--5--5--8--5--5--8--8--5--|--7--7--5--7--7-----------|


                                                      
--------------------------|--------------------------|
--------------------------|--------------------------|
--------7--------7--7-----|--------3--------5--5-----|
--0--0-----0--0--------0--|--1--1-----1--3--------3--|


                                                      
--------------------------|--------------------------|
--------------------------|--------------------------|
--------------------------|-----------------5--5--6--|
--5--5--8--5--5--8--8--5--|--7--7--5--7--7-----------|


                                                      
--------------------------|--------------------------|
--------------------------|--------------------------|
--------7--------7--7-----|--------3--------5--5-----|
--0--0-----0--0--------0--|--1--1-----1--3--------3--|


                                                      
--------------------------|--------------------------|
--------------------------|--------------------------|
--------------------------|-----------------5--5--6--|
--5--5--8--5--5--8--8--5--|--7--7--5--7--7-----------|


                                                      
--------------------------|--------------------------|
--------------------------|--------------------------|
--------7--------7--7-----|--------3--------5--5-----|
--0--0-----0--0--------0--|--1--1-----1--3--------3--|


                                                      
--------------------------|--------------------------|
--------------------------|--------------------------|
--------------------------|-----------------5--5--6--|
--5--5--8--5--5--8--8--5--|--7--7--5--7--7-----------|


                                                      
--------------------------|--------------------------|
--------------------------|--------------------------|
--------7--------7--7-----|--------3--------5--5-----|
--0--0-----0--0--------0--|--1--1-----1--3--------3--|


                                                      
--------------------------|--------------------------|
--------------------------|--------------------------|
--------------------------|--------------------------|
--1--1--1--1--1--1--1--1--|--3--3--3--3--3--3--3--3--|


                                                      
--------------------------|--------------------------|
--------------------------|--------------------------|
--------------------------|--------------------------|
--5--5--5--5--5--5--5--5--|--3--3--3--3--3--3--3--3--|


                                                      
--------------------------|--------------------------|
--------------------------|--------------------------|
--------------------------|--------------------------|
--1--1--1--1--1--1--1--1--|--3--3--3--3--3--3--3--3--|


                                                      
--------------------------|--------------------------|
--------------------------|--------------------------|
--------------------------|--------------------------|
--5--5--5--5--5--5--5--5--|--3--3--3--3--3--3--3--3--|


                                                      
--------------------------|--------------------------|
--------------------------|--------------------------|
--------------------------|--------------------------|
--1--1--1--1--1--1--1--1--|--3--3--3--3--3--3--3--3--|


                                                      
--------------------------|--------------------------|
--------------------------|--------------------------|
--------------------------|--------------------------|
--5--5--5--5--5--5--5--5--|--8--8--8--8--8--8--8--8--|


                                                      
--------------------------|--------------------------|
--------------------------|--------------------------|
--------------------------|--------------------------|
--1--1--1--1--1--1--1--1--|--3--3--3--3--3--3--3--3--|


                                                                           
--------------------------|------------------------|----------------------|
--------------------------|------------------------|----------------------|
--------------------------|-------3--------5-------|----------------------|
--5--5--5--5--5--5--5--5--|--1-------1--3-------3--|--5--5--8--5----------|


                                                                        
----------------------|-----------------------|------------------------|
----------------------|-----------------------|------------------------|
----------------------|-----------------------|-------3--------5-------|
--7--7--5--7----------|--0--0--12--0----------|--1-------1--3-------3--|


                                                                      
----------------------|----------------------|-----------------------|
----------------------|----------------------|-----------------------|
----------------------|----------------------|-----------------------|
--5--5--8--5----------|--7--7--5--7----------|--0--0--12--0----------|


                                                                       
------------------------|----------------------|----------------------|
------------------------|----------------------|----------------------|
-------3--------5-------|----------------------|----------------------|
--1-------1--3-------3--|--5--5--8--5----------|--7--7--5--7----------|


                                                                          
-----------------------|------------------------|------------------------|
-----------------------|------------------------|------------------------|
-----------------------|-------3--------5-------|------------------------|
--0--0--12--0----------|--1-------1--3-------3--|--5----8--5--5--8----5--|


                                                                           
------------------------|------------------------|------------------------|
------------------------|------------------------|------------------------|
----------------5----6--|-------7--------7-------|-------3--------5-------|
--7----5--7--7----------|--0-------0--0-------0--|--1-------1--3-------3--|


                                                      
--------------------------|--------------------------|
--------------------------|--------------------------|
--------------------------|--------------------------|
--1--1--1--1--1--1--1--1--|--3--3--3--3--3--3--3--3--|


                                                      
--------------------------|--------------------------|
--------------------------|--------------------------|
--------------------------|--------------------------|
--5--5--5--5--5--5--5--5--|--3--3--3--3--3--3--3--3--|


                                                      
--------------------------|--------------------------|
--------------------------|--------------------------|
--------------------------|--------------------------|
--1--1--1--1--1--1--1--1--|--3--3--3--3--3--3--3--3--|

[ Tab from: http://www.guitartabs.cc/tabs/m/muse/time_is_running_out_btab_ver_4.html ]
                                                      
--------------------------|--------------------------|
--------------------------|--------------------------|
--------------------------|--------------------------|
--5--5--5--5--5--5--5--5--|--3--3--3--3--3--3--3--3--|


                                                      
--------------------------|--------------------------|
--------------------------|--------------------------|
--------------------------|--------------------------|
--1--1--1--1--1--1--1--1--|--3--3--3--3--3--3--3--3--|


                                                      
--------------------------|--------------------------|
--------------------------|--------------------------|
--------------------------|--------------------------|
--5--5--5--5--5--5--5--5--|--8--8--8--8--8--8--8--8--|


                                                      
--------------------------|--------------------------|
--------------------------|--------------------------|
--------------------------|--------------------------|
--1--1--1--1--1--1--1--1--|--3--3--3--3--3--3--3--3--|


                                                      
--------------------------|--------------------------|
--------------------------|--------------------------|
--------------------------|--------------------------|
--5--5--5--5--5--5--5--5--|--8--8--8--8--8--8--8--8--|


                                                          
--------------------------|------------------------------|
--0--0--2--2--3--3--5--5--|--7--7--9--9--10--10--12--12--|
--------------------------|------------------------------|
--------------------------|------------------------------|


                                                          
--------------------------|------------------------------|
--0--0--2--2--3--3--5--5--|--7--7--9--9--10--10--12--12--|
--------------------------|------------------------------|
--------------------------|------------------------------|


                                                          
--------------------------|------------------------------|
--0--0--2--2--3--3--5--5--|--7--7--9--9--10--10--12--12--|
--------------------------|------------------------------|
--------------------------|------------------------------|


                                                      
--------------------------|--------------------------|
--2--2--2--2--2--2--2--2--|--2--2--2--2--2--2--2--2--|
--------------------------|--------------------------|
--------------------------|--------------------------|


                                                      
--------------------------|--------------------------|
--------------------------|--------------------------|
--------------------------|-----------------5--5--6--|
--5--5--8--5--5--8--8--5--|--7--7--5--7--7-----------|


                                                      
--------------------------|--------------------------|
--------------------------|--------------------------|
--------7--------7--7-----|--------3--------5--5-----|
--0--0-----0--0--------0--|--1--1-----1--3--------3--|


                                                      
--------------------------|--------------------------|
--------------------------|--------------------------|
--------------------------|-----------------5--5--6--|
--5--5--8--5--5--8--8--5--|--7--7--5--7--7-----------|


                                                      
--------------------------|--------------------------|
--------------------------|--------------------------|
--------7--------7--7-----|--------3--------5--5-----|
--0--0-----0--0--------0--|--1--1-----1--3--------3--|


                                                      
--------------------------|--------------------------|
--------------------------|--------------------------|
--------------------------|-----------------5--5--6--|
--5--5--8--5--5--8--8--5--|--7--7--5--7--7-----------|


                                                      
--------------------------|--------------------------|
--------------------------|--------------------------|
--------7--------7--7-----|--------3--------5--5-----|
--0--0-----0--0--------0--|--1--1-----1--3--------3--|


                                                      
--------------------------|--------------------------|
--------------------------|--------------------------|
--------------------------|--------------------------|
--1--1--1--1--1--1--1--1--|--3--3--3--3--3--3--3--3--|


                                                      
--------------------------|--------------------------|
--------------------------|--------------------------|
--------------------------|--------------------------|
--5--5--5--5--5--5--5--5--|--3--3--3--3--3--3--3--3--|


                                                      
--------------------------|--------------------------|
--------------------------|--------------------------|
--------------------------|--------------------------|
--1--1--1--1--1--1--1--1--|--3--3--3--3--3--3--3--3--|


                                                      
--------------------------|--------------------------|
--------------------------|--------------------------|
--------------------------|--------------------------|
--5--5--5--5--5--5--5--5--|--3--3--3--3--3--3--3--3--|


                                                      
--------------------------|--------------------------|
--------------------------|--------------------------|
--------------------------|--------------------------|
--1--1--1--1--1--1--1--1--|--3--3--3--3--3--3--3--3--|


                                                      
--------------------------|--------------------------|
--------------------------|--------------------------|
--------------------------|--------------------------|
--5--5--5--5--5--5--5--5--|--8--8--8--8--8--8--8--8--|


                                                      
--------------------------|--------------------------|
--------------------------|--------------------------|
--------------------------|--------------------------|
--1--1--1--1--1--1--1--1--|--3--3--3--3--3--3--3--3--|


                                                      
--------------------------|--------------------------|
--------------------------|--------------------------|
--------------------------|--------------------------|
--5--5--5--5--5--5--5--5--|--8--8--8--8--8--8--8--8--|


                                                          
--------------------------|------------------------------|
--0--0--2--2--3--3--5--5--|--7--7--9--9--10--10--12--12--|
--------------------------|------------------------------|
--------------------------|------------------------------|


                                                          
--------------------------|------------------------------|
--0--0--2--2--3--3--5--5--|--7--7--9--9--10--10--12--12--|
--------------------------|------------------------------|
--------------------------|------------------------------|


                                                          
--------------------------|------------------------------|
--0--0--2--2--3--3--5--5--|--7--7--9--9--10--10--12--12--|
--------------------------|------------------------------|
--------------------------|------------------------------|


                                                                             
--------------------------|--------------------------|----------------------|
--2--2--2--2--2--2--2--2--|--2--2--2--2--2--2--2--2--|----------------------|
--------------------------|--------------------------|----------------------|
--------------------------|--------------------------|--5--5--8--5----------|


                                                                        
----------------------|------------------------|----------------------||
----------------------|------------------------|----------------------||
----------------------|------------------------|----------------------||
--5--5--8--5----------|--5--5--8--5----3----4--|--5--5--8--5----------||
Tab By
Tom Leech (blokeyman@hotmail.com)
Comments