Muse - Time Is Running Out Chords & Tabs

 

Time Is Running Out Chords & Tabs

Muse Chords & Tabs

Version: 3 Type: Bass Tab 0 ratings
1 star 2 stars 3 stars 4 stars 5 stars
comments

Time Is Running Out Bass Tab

Standard Tuning

This is basically the same as one of the other tabs but this one's easier
to play and it's definately right because I've seen Chris play it.


Intro and 1st Verse

G:-----------------------------------------------|
D:-----------------------------------------------|
A:----3----3----------56---7----7-----3-----5----|
E:--5---55---5/7-5-77----0---00---0h1---1/3---3--| x5


Bridge 1

G:------------------------------------------------------------|
D:------------------------------------------------------------|
A:--88888888101010101010101012121212121212121010101010101010--|
E:------------------------------------------------------------|

G:-----------------------------------------------------------|
D:------------------------------------------1010101010-------|
A:--8888888810101010101010101212121212121212------------10\--|
E:-----------------------------------------------------------|
                                             Slide goes straight into
                                              chorus
Chorus 1

G:------------------------------------|
D:------------------------------------|
A:--------------------------33333333--|
E:--111111113333333355555555----------|

G:-------------------------------------|
D:-------------------------------------|
A:----------------------------3----5---|
E:--11111111333333335555555511-1/33-3--|


Verse 2

G:----------------------------------|
D:----------------------------------|
A:----3-------------7------3----5---|
E:--55-5---7757---00-0---11-1/33-3--| x3


G:-----------------------------------------------|
D:-----------------------------------------------|
A:----3----3----------56---7----7-----3-----5----|
E:--5---55---5/7-5-77----0---00---0h1---1/3---3--|


Bridge 2 (Played twice as fast as Bridge 1 and therefore each note is played
          twice as many times)

G:------------------------------------------------------------|
D:------------------------------------------------------------|
A:--88888888101010101010101012121212121212121010101010101010--|
E:------------------------------------------------------------|
[ Tab from: http://www.guitartabs.cc/tabs/m/muse/time_is_running_out_btab_ver_3.html ]
G:-----------------------------------------------------------|
D:------------------------------------------1010101010-------|
A:--8888888810101010101010101212121212121212------------10\--|
E:-----------------------------------------------------------|
                                             Slide goes straight into
                                              chorus
Chorus 2 (Same speed as Chorus 1)

G:------------------------------------|
D:------------------------------------|
A:--------------------------33333333--|
E:--111111113333333355555555----------|

G:----------------------------------------0022------------0022--|
D:----------------------------------002233----------002233------|
A:--------------------------33333323----------002233------------|
E:--111111113333333355555555------------------------------------|

G:--------------0022---------------------------|
D:--------002233-------------------------------|
A:--002233----------002233--7-----7---7-----7--|
E:------------------------0----00---0----00----|


Instrumental

G:-----------------------------------------------|
D:-----------------------------------------------|
A:----3----3----------56---7----7-----3-----5----|
E:--5---55---5/7-5-77----0---00---0h1---1/3---3--| x3


Bridge 3

G:------------------------------------------------------------|
D:------------------------------------------------------------|
A:--88888888101010101010101012121212121212121010101010101010--|
E:------------------------------------------------------------|

G:-----------------------------------------------------------|
D:------------------------------------------1010101010-------|
A:--8888888810101010101010101212121212121212------------10\--|
E:-----------------------------------------------------------|
                                             Slide goes straight into
                                              chorus
Chorus 3

G:------------------------------------|
D:------------------------------------|
A:--------------------------33333333--|
E:--111111113333333355555555----------|

G:----------------------------------------0022------------0022--|
D:----------------------------------002233----------002233------|
A:--------------------------33333323----------002233------------|
E:--111111113333333355555555------------------------------------|

G:--------------0022---------------------------|
D:--------002233------------2-----2---2-----2--|
A:--002233----------002233---------------------|
E:------------------------0----00---0----00----|


Outro

G:-----------------------------|
D:-----------------------------|
A:----3------3------3------3---|
E:--55-5---55-5---55-5-4-55-5--|
Comments