Muse - The Small Print Chords & Tabs

 

The Small Print Chords & Tabs

Muse Chords & Tabs

Version: 5 Type: Tab 0 ratings
1 star 2 stars 3 stars 4 stars 5 stars
comments

The Small Print Tab

   
Muse - The Small Print (TSP)
Tabbed By Richard Pugh

key
|...| = Palm Mute
*b* = Bend from * to *
*r* = Release bend from * to *
~ = Let ring or vibrato where it sounds good
/ = Slide up
\ = Slide down

Intro:
e|--------------------------------|
B|----------------3---------------|
G|--------------------------------|
D|3---4---3---4-------4---3---4---|
A|--------------------------------| 
D|--------------------------------| X 12

Verse
e|----------------------------------------------------------------|
B|----------------------------------------------------------------|
G|7---7---7---7---7---7---7---7---7---7---7---7---9---9---9---9---|
D|x---x---x---x---x---x---x---x---x---x---x---x---x---x---x---x---|
A|5---5---5---5---5---5---5---5---5---5---5---5---7---7---7---7---|
D|----------------------------------------------------------------|

e|----------------------------------------------------------------|
B|----------------------------------------------------------------|
G|11--11--11--11--11--11--11--11--12--12--12--12--14--14--14--14--|
D|x---x---x---x---x---x---x---x---x---x---x---x---x---x---x---x---|
A|9---9---9---9---9---9---9---9---10--10--10--10--12--12--12--12--|
D|----------------------------------------------------------------|

e|----------------------------------------------------------------|
B|----------------------------------------------------------------|
G|16--16--16--16--16--16--16--16--16--16--16--16--18--18--16--16--|
D|x---x---x---x---x---x---x---x---x---x---x---x---x---x---x---x---|
A|14--14--14--14--14--14--14--14--14--14--14--14--16--16--14--14--|
D|----------------------------------------------------------------|

                                   1.                               2.
e|--------------------------------|--------------------------------|--------------------------------|
B|--------------------------------|--------------------------------|--------------------------------|
G|16--16--16--16--16--16--16--16--|15--15--15--15--15--15--15--15--|15--16--15--16--15~~~~~~~~~~////|
D|x---x---x---x---x---x---x---x---|x---x---x---x---x---x---x---x---|--------------------------------|
A|14--14--14--14--14--14--14--14--|13--13--13--13--13--13--13--13--|--------------------------------|
D|--------------------------------|--------------------------------|--------------------------------|

Intro X 4

Chorus:
e|----------------------------------------------------------------|
B|----------------------------------------------------------------|
G|4~~~~~~~~~~~~~~~4---4---4---4-----------------------------------|
D|4~~~~~~~~~~~~~~~4---4---4---4---4---4---4---4---4---4---4---4---|
A|2~~~~~~~~~~~~~~~2---2---2---2---4---4---4---4---4---4---4---4---|
D|--------------------------------4---4---4---4---4---4---4---4---|
                  |...............................................|

e|----------------------------------------------------------------|
B|----------------------------------------------------------------|
G|----------------------------------------------------------------|
D|0---0---0---0---0---0---0---0---4---4---4---4---4---4---4---4---|
A|0---0---0---0---0---0---0---0---4---4---4---4---4---4---4---4---|
D|0---0---0---0---0---0---0---0---4---4---4---4---4---4---4---4---| X2
 |................................................................|

e|----------------------------------------------------------------|
B|----------------------------------------------------------------|
G|9---9---9---9---9---9---9---9---11--11--11--11--11--11--11--11--|
D|9---9---9---9---9---9---9---9---11--11--11--11--11--11--11--11--|
A|7---7---7---7---7---7---7---7---9---9---9---9---9---9---9---9---|
D|----------------------------------------------------------------|

e|----------------------------------------------------------------|
B|----------------------------------------------------------------|
G|4~~~~~~~~~~~~~~~4---4---4---4-----------------------------------|
D|4~~~~~~~~~~~~~~~4---4---4---4---0---0---0---0---0---0---0---0---|
A|2~~~~~~~~~~~~~~~2---2---2---2---0---0---0---0---0---0---0---0---|
D|--------------------------------0---0---0---0---0---0---0---0---|
                 |................................................|
[ Tab from: http://www.guitartabs.cc/tabs/m/muse/the_small_print_tab_ver_5.html ]
e|----------------------------------------------------------------|
B|----------------------------------------------------------------|
G|----------------------------------------------------------------|
D|4---4---4---4---4---4---4---4---4---4---4---4---4---4---4---4---|
A|4---4---4---4---4---4---4---4---4---4---4---4---4---4---4---4---|
D|4---4---4---4---4---4---4---4---4---4---4---4---4---4---4---4---|
 |................................................................|

e|----------------------------------------------------------------|
B|----------------------------------------------------------------|
G|9---9---9---9---9---9---9---9-----------------------------------|
D|9---9---9---9---9---9---9---9---7---7---7---7---7---7---7---7---|
A|7---7---7---7---7---7---7---7---7---7---7---7---7---7---7---7---|
D|--------------------------------7---7---7---7---7---7---7---7---|

e|----------------------------------------------------------------|
B|----------------------------------------------------------------|
G|7---7---7---7---7---7---7---7---7---7---7---7---7---7---7---7---|
D|7---7---7---7---7---7---7---7---7---7---7---7---7---7---7---7---|
A|5---5---5---5---5---5---5---5---5---5---5---5---5---5---5---5---|
D|----------------------------------------------------------------|

e|----------------------------------------------------------------|
B|----------------------------------------------------------------|
G|12--12--12--12--12--12--12--12--12--12--12--12--12--12--12--12--|
D|12--12--12--12--12--12--12--12--12--12--12--12--12--12--12--12--|
A|10--10--10--10--10--10--10--10--10--10--10--10--10--10--10--10--|
D|----------------------------------------------------------------|

e|----------------------------------------------------------------|
B|----------------------------------------------------------------|
G|15--15--15--15--15--15--15--15--15--15--15--15--15--15--15--15--|
D|15--15--15--15--15--15--15--15--15--15--15--15--15--15--15--15--|
A|13--13--13--13--13--13--13--13--13--13--13--13--13--13--13--13--|
D|----------------------------------------------------------------|

Solo (Middle 8)

If you have a tremolo bar you can use that to bend down, rather than having to bend up first.
There are also some of Matt's classic weird effects on here, but this sounds okay.
This is the only part of the tab which might not be in time, 
so listen to the song to hear how it should roughly sound.
e|----------------------------------------------------------------|
B|----------------------------------------------------------------|
G|----------------------------------------------------------------|
D|----------------------------------------------------------------|
A|----------------------------------------------------------------|
D|7b9~~~~~~vibrato while slowly releasing the bend~~~~~~~~~~~~~~~~|

e|----------------------------------------------------------------|
B|----------------------------------------------------------------|
G|----------------------------------------------------------------|
D|////9b11~~vibrato while releasing bend~~151515151717171719191919|
A|----------------------------------------------------------------|
D|----------------------------------------------------------------|

e|----------------------------------------------------------------|
B|----------------------------------------------------------------|
G|----------------------------------------------------------------|
D|bb21~~~~~~~~~~~~~~~~~~~~~~~~~~~~~~~~~~~~~~~~~~~~~~21bb23~~~~~~rr|
A|----------------------------------------------------------------|
D|----------------------------------------------------------------|

e|----------------------------------------------------------------|
B|----------------------------------------------------------------|
G|----------------------------------------------------------------|
D|21~~~~~~~~~~~~~~~~bb23rr21~~~~~~20~~~~~~~~~~~~~~~~~~~~~~~~~~\\\\|
A|----------------------------------------------------------------|
D|----------------------------------------------------------------|

Verse

Chorus 

Intro X8 on different, more tinny setting, e.g. use treble pickup rather than rhythm.

Intro X8 normal

Chrous, but no palm muting or letting ring, constant struming.

End:
e|----------------|
B|----------------|
G|----------------|
D|9~~~~~~~\\\\\\\\|
A|9~~~~~~~\\\\\\\\|
D|9~~~~~~~\\\\\\\\|

Pretty much right i think, any silly mistakes/disagreements then um, oh well, let's hope i spot 'em.

Richard
Comments