Muse - The Small Print Chords & Tabs

 

The Small Print Chords & Tabs

Muse Chords & Tabs

Version: 2 Type: Bass Tab 0 ratings
1 star 2 stars 3 stars 4 stars 5 stars
comments

The Small Print Bass Tab

Song: The Small Print (live)
Artist: Muse
Album: Absolution
Tabber: Colin "Domipheus" Riley [colin@colsoft.co.uk]
Instrument: Bass
Tuning: DADG


Just tabbed the whole thing out as i coudldnt decide on what was what structure wise :)

G|--------------------------------------------------------------------|
D|--------------------------------------------------------------------|
A|-22222222-----------------------22222222----------------------------|
D|---------44444444000000004444444--------444444440000000044444444-10/|


G|----------------------------------------------------------------|
D|-----------------------------44445555555555554444222222---------| x2
A|-2222222222224444555555555555----------------------------------0|
D|-------------------------------------------------------04444444-|

G|----------------------------------------------------------------|
D|----------------------------------------------------------------|
A|-22222222-----------------------22222222------------------------|
D|---------44444444000000004444444--------444444440000000044444444|

G|----------------------------------------------------------------|
D|----------------------------------------------------------------|
A|-2---2222-----------------------2---2222------------------------|
D|---------44444444000000004444444--------444444440000000044444444|

G|----------------------------------------------------------------|
D|-2-22222h4444-----------------------------22222222--------------|
A|-------------2-222--------------------------------00000000555555|
D|-------------------00000000444444444444444----------------------|

G|-----------------------------------------|
D|-----------------------------------------|
A|55555------------------------------------|
D|-----444444444555555555555555555555555555|
[ Tab from: http://www.guitartabs.cc/tabs/m/muse/the_small_print_btab_ver_2.html ]
G|----------------------------------------------------------------|
D|-----------------------------44445555555555554444222222---------| x3
A|-2222222222224444555555555555----------------------------------0|
D|-------------------------------------------------------04444444-|

G|--------------------------------------------------------------------|
D|--------------------------------------------------------------------|
A|-22222222-----------------------22222222----------------------------|
D|---------44444444000000004444444--------444444440000000044444444-10/|

G|----------------------------------------------------------------|
D|----------------------------------------------------------------|
A|-2---2222-----------------------2---2222------------------------|
D|---------44444444000000004444444--------444444440000000044444444|

G|----------------------------------------------------------------|
D|-2-22222h4444-----------------------------22222222--------------|
A|-------------2-222--------------------------------00000000555555|
D|-------------------00000000444444444444444----------------------|

G|-----------------------------------------------|
D|-----------------------------------------------| rest
A|55555--------------------------------------22--|
D|-----444444444555555555555555555555555555------|

G|----------------------------------------------------------------|
D|----------------------------------------------------------------| x2
A|-22222222-----------------------22222222------------------------|
D|---------44444444000000004444444--------444444440000000044444444|

G|----------------------------------------------------------------|
D|-2-22222h4444-----------------------------22222222--------------|
A|-------------2-222--------------------------------00000000555555|
D|-------------------00000000444444444444444----------------------|

G|-------------------------------------------|
D|-------------------------------------------|
A|55555--------------------------------------|
D|-----444444444555555555555555555555555555--| Let ring, And the end!
Comments