Muse - Supermassive Black Hole Chords & Tabs

 

Supermassive Black Hole Chords & Tabs

Muse Chords & Tabs

Version: 2 Type: Tab

Supermassive Black Hole Tab

   
Tabbed By Thom Hayden

|||||||||||||||||||||||||||||||||
|Supermassive Black Hole By Muse|
|||||||||||||||||||||||||||||||||

An Awesome song from Muse!

Intro


E|-------------------------------------------
B|-------------------------------------------
G|-------------------------------------------
D|------5~---------5-----------5~-------5----
A|-------------------------------------------
E|--00-----0--0-00--0--0-0--00----0-0-00--0--


E|---------------------------------------------------------|
B|---------------------------------------------------------|
G|---------------------------------------------------------|
D|------5~---------5-----------5~-------5----7-5p3-5p3-----|
A|----------------------------------------------------5----|
E|--00-----0--0-00--0--0-0--00----0-0-00--0----------------|



Verse
[ Tab from: http://www.guitartabs.cc/tabs/m/muse/supermassive_black_hole_tab_ver_2.html ]
E|--------------------------------------------------|
B|--------------------------------------------------|
G|--------------------------------------------------|
D|-2-2-5~-2-22-2-25-2-2-2-5-2-2-22-22-52-7-5p3h5p3--|
A|-2-2-5~-2-22-2-25-2-2-2-5-2-2-22-22-52----------5-|
E|-0-0-3~-0-00-0-03-0-0-0-3-0-0-00-00-30------------|


Chorus

E|------------------------------------------------------------------------|
B|------------------------------------------------------------------------|
G|------------------------------------------------------------------------|
D|-7-7-7-7-7-7-6-5-5-5-5-5-5-5-7-8-9-9-9-9-9-9-5-4-2-2-2-2-2-2-2-2-4-5-6-7|
A|------------------------------------------------------------------------|
E|-5-5-5-5-5-5-4-3-3-3-3-3-3-3-5-6-7-7-7-7-7-7-3-2-0-0-0-0-0-0-0-0-2-3-4-5|



And thats about it except for the solo which i'm still workin at,
Thanks